» » »

Norman Greenbaum, Spirit In The Sky Bass tabs (ver.1)

Artists:  A B C D E F G H I J K L M N O P Q R S T U V W X Y Z # 

Spirit In The Sky Bass tabs (ver.1)

Norman Greenbaum Tabs
 Rating:
4.4/5 (7 votes)
Spirit In The Sky lessons Tabs too difficult? Try these video lessons and learn fast
1
                Intro: X3
(0:08)
-----------------|
-------------0---|
-0-0-0-0-0-0---3-|
-----------------|

-----------------|
---------------0-|
-0-0-0-0-0-0-3---|
-----------------|


Verse and Chorus
or something: x2
(0:31)
-------------------------|
-------------------------|
-0-0-0-0-0-0-0-0-0-0-0-0-|
-------------------------|

-------------------------|
-0-0-0-0-0-0-0-0---------|
-----------------0-0-0-0-|
-------------------------|

-----------------|
-2-2-2-2-2-2-----|
-------------0-0-|
-----------------|


Guitar stuff: x2
(1:01)
-----------------|
-------------0---|
-0-0-0-0-0-0---3-|
-----------------|

-----------------|
---------------0-|
-0-0-0-0-0-0-3---|
-----------------|


Another Verse: x2
(1:16)
-------------------------|
-------------------------|
-0-0-0-0-0-0-0-0-0-0-0-0-|
-------------------------|

-------------------------|
-0-0-0-0-0-0-0-0---------|
-----------------0-0-0-0-|
-------------------------|

-----------------|
-2-2-2-2-2-2-----|
-------------0-0-|
-----------------|


More guitar stuff: x2
(1:46)
-----------------|
-------------0---|
-0-0-0-0-0-0---3-|
-----------------|

-----------------|
---------------0-|
-0-0-0-0-0-0-3---|
-----------------|


Solo:
(2:01)
-------------------------|
-------------------------|
-0-0-0-0---------0-0-0-0-|
---------3-3-3-3---------|

-------------------------|
-------------------------|
-3-3-3-3-0-0-0-0---------|
-----------------3-3-3-3-|

-----------------|
-------------0-0-|
-0-0-0-0-3-3-----|
-----------------|

Guitar stuff again: x2
(2:15)
-----------------|
-------------0---|
-0-0-0-0-0-0---3-|
-----------------|

-----------------|
---------------0-|
-0-0-0-0-0-0-3---|
-----------------|


Another Verse:
(2:30)
-------------------------|
-------------------------|
-0-0-0-0-0-0-0-0-0-0-0-0-|
-------------------------|

-------------------------|
-0-0-0-0-0-0-0-0---------|
-----------------0-0-0-0-|
-------------------------|

-----------------|
-2-2-2-2-2-2-----|
-------------0-0-|
-----------------|


Modified Verse:
(2:45)
-------------------------|
-------------------------|
-0-0-0-0-0-0-0-0-0-0-0-0-|
-------------------------|

-------------------------|
-0-0-0-0-0-0-0-0---------|
-----------------0-0-0-0-|
-------------------------|

---------------------------------|
-2-2-2-2---------2-2-2-2---------|
---------0-0-0-0---------0-0-0-0-|
---------------------------------|


Rest of song...: x6
(3:03)
-----------------|
-------------0---|
-0-0-0-0-0-0---3-|
-----------------|

-----------------|
---------------0-|
-0-0-0-0-0-0-3---|
-----------------|


...Except for the Fade-out:
(3:48)
-----------------|
-0-0-0-0-0-0-0---|
-----------------|
-----------------|
            
Submit corrections

comments powered by Disqus
↑ Back to top | Norman Greenbaum Bass for Spirit In The Sky. Lyrics for acoustic guitar and electric guitar. 1 Tablatures and chords are parodies/interpretations of the original songs. You may use it for private study, scholarship, research or language learning purposes only