» » »

Nothing Bass tabs (ver.1)

Artists:  A B C D E F G H I J K L M N O P Q R S T U V W X Y Z # 

Nothing Bass tabs (ver.1)

No One
Rating:
0/5 (0 votes)

Hard to play? Try these video lessons and learn fast.
                No one-Nothing

F|------------------------------------|
C|------------------------------------|
G|------------------------------------|
C|--1-1-0----1-1-0----1-1-0----1-1-0--|

Last time:
F|--------------------------------------|
C|--------------------------------------|
G|-----------------------------5\1------|
C|--1-1-0----1-1-0---1-1-0----x---------|

verse:

F|-------------------------------------------------|
C|-------------------------------------------------|
G|------------------------------------------5\1----|
C|--1-1-0--0-0--0-0-0-0---1-1-0--0-0--0-0-0--------|

Chorus:

F|-------------------------------|
C|-------------------------------|
G|-------------------------------|
C|--0-1-0--6-0--1-0--1-0--0-5----|

Interlude:(1:30)

F|----------------------|
C|----------------------|
G|----------------------|
C|--1-0-1------1-0-1----|

(1:40)
F|-----------------------------|
C|-----------------------------|
G|-----------------------------|
C|---0-1-0--6-0--1-0--1-0--0-5-|

(1:52)
F|-----------------------------------------|
C|-----------------------------------------|
G|-----------------------------------------|
C|--0-1--0-0--3--0-6--0-0-1-0-0--3-2-1-1---|
            
Hard to play? Try these video lessons and learn fast. | Correct




comments powered by Disqus
↑ Back to top | Tablatures and chords are parodies/interpretations of the original songs. You may use it for private study, scholarship, research or language learning purposes only