» » »

Peace Of Mind Tabs (ver.1)

Artists:  A B C D E F G H I J K L M N O P Q R S T U V W X Y Z # 

Peace Of Mind Tabs (ver.1)

Nonpoint
Rating:
0/5 (0 votes)

Hard to play? Try these video lessons and learn fast.
                Band- Nonpoint
Song- Peace Of Mind
Album- Recoil
Tuning- Drop C (CGCFAD)

Intro
|----------------------------------------------|
|----------------------------------------------|
|----------------------------------------------|
|-0-0--------0-------0------0------0---0---0---|
|-0-0------------------------------------------|
|-0-0--10h12---10h12---10-3----3h5---2---2---0-|
P.M..

Chorus
|---------------------------------------------------------------|
|---------------------------------------------------------------|
|---------------------------------------------------------------|
|---------------0------------------0---------------3----------2-|
|--------------------------------------------3-3-3-3--0-2-2-2-2-|
|-000-000-10h12---10-000-000-10h12---10-10/3-3-3-3-3--0-2-2-2-2-|
P.M.. ...            ... ...                 .....    .......

|-------------------------------------------------|
|-------------------------------------------------|
|-------------------------------------------------|
|---------------0------------------0----3^-3----2-|
|------------------------------------------3--0-2-|
|-000-000-10h12---10-000-000-10h12---10----3--0-2-|
P.M.. ...            ... ...

Fill
|---------------------------------|
|---------------------------------|
|---------------------------------|
|---------------------------------|
|-0-0-15p14-0-0-15p14-0-0-15p14-0-|
|-0-0-15p14-0-0-15p14-0-0-15p14-0-|

Verse
|------------------------------------------------------------|
|------------------------------------------------------------|
|------------------------------------------------------------|
|------------------------------------------------------------|
|-0-0-14-0-0-15-0-0-17-0-0-17p15-0-0-15-0-0-15-0-0-15-----5*-|
|-0-0-14-0-0-15-0-0-17-0-0-17p15-0-0-15-0-0-15-0-0-15-000-5*-|
P.M..    ...    ...    ...       ...    ...    ...    ...

|---------------------------------------------------------------|
|---------------------------------------------------------------|
|---------------------------------------------------------------|
|---------------------------------------------------------------|
|-0-0-15-0-0-15-0-0-15-0-0-15p14-0-0-15-0-0-15-0-0-15-0-0-15p14-|
|-0-0-15-0-0-15-0-0-15-0-0-15p14-0-0-15-0-0-15-0-0-15-0-0-15p14-|

|---------------------------------------------------------------|
|---------------------------------------------------------------|
|---------------------------------------------------------------|
|---------------------------------------------------------------|
|-0-0-14-0-0-15-0-0-17-0-0-17p15-0-0-15-0-0-15-0-0-15-0-0-15p14-|
|-0-0-14-0-0-15-0-0-17-0-0-17p15-0-0-15-0-0-15-0-0-15-0-0-15p14-|

|---------------------------------|
|---------------------------------|
|---------------------------------|
|---------------------------------|
|-0-0-15p14-0-0-15p14-0-0-15p14-0-|
|-0-0-15p14-0-0-15p14-0-0-15p14-0-|

Play Chorus

Play Fill

Play Verse

Play Chorus

Bridge
|-------------------------------------|
|-------------------------------------|
|-------------------------------------|
|-------------------------------------|
|-0-1-3-0-1-3-0-1-3-0-1-3-0-1-3-0-1-3-|
|-0-1-3-0-1-3-0-1-3-0-1-3-0-1-3-0-1-3-|

|------------------------------------|
|------------------------------------|
|------------------------------------|
|-10-------10-------10-------9-------|
|-8--------8--------8--------7-------|
|----0-000----0-000----0-000---0-000-|

Play Chorus

End w/ Bridge
            
Hard to play? Try these video lessons and learn fast. | Correct




comments powered by Disqus
↑ Back to top | Tablatures and chords are parodies/interpretations of the original songs. You may use it for private study, scholarship, research or language learning purposes only