» » »

Bullet With A Name Tabs (ver.1)

Artists:  A B C D E F G H I J K L M N O P Q R S T U V W X Y Z # 

Bullet With A Name Tabs (ver.1)

Nonpoint
Rating:
3/5 (4 votes)

Hard to play? Try these video lessons and learn fast.
                Gtr I (B F# B E G# C#) - 'Untitled'
Gtr II (B F# B E G# C#) - 'Untitled'


   Intro
    Q=190                                               1.
    Gtr I
    PM------------------------------------------------|
    E E E E E E E E   E E E E E E E E   E E E E E E E E E E E E E E E E
||------------------|-----------------|----------------------------------||
||o-----------------|-----------------|---------------------------------o||
||------------------|-----------------|----------------------------------||
||--0-2-1-0-0-2-1-0-|-0-2-1-0-0-2-1-0-|-0-2-1-0-0-2-1-0-0-3-0-5-0-7-0-9--||
||o-0-2-1-0-0-2-1-0-|-0-2-1-0-0-2-1-0-|-0-2-1-0-0-2-1-0-0-3-0-5-0-7-0-9-o||
||--0-2-1-0-0-2-1-0-|-0-2-1-0-0-2-1-0-|-0-2-1-0-0-2-1-0-0-3-0-5-0-7-0-9--||


  2.              Q=170
  PM----|
  E E E E  Q   Q  E. E E E. E E
|-------------------------------|
|-------------------------------|
|-------------------------------|
|-0-2-1-0-12--12--0--3-2-0--3-2-|
|-0-2-1-0-12--12--0--3-2-0--3-2-|
|-0-2-1-0-12--12--0--3-2-0--3-2-|


  E. E E E. E E E.   E E E. E E E. E   E E. E E
|------------------|-----------------|------------|
|------------------|-----------------|------------|
|------------------|-----------------|------------|
|-0--3-2-0--3-2-0--|-3-2-0--3-2-0--3-|-2-0--3-2---|
|-0--3-2-0--3-2-0--|-3-2-0--3-2-0--3-|-2-0--3-2---|
|-0--3-2-0--3-2-0--|-3-2-0--3-2-0--3-|-2-0--3-2---|


   Verse
    E. E E E. E E E.   E E E. E E E. E   E E. E E E. E E E.   E E
||-------------------|-----------------|--------------------|-------|
||o------------------|-----------------|--------------------|-------|
||-------------------|-----------------|--------------------|-------|
||--0--3-2-0--3-2-0--|-3-2-0--3-2-0--3-|-2-0--3-2-0--3-2-0--|-3-2---|
||o-0--3-2-0--3-2-0--|-3-2-0--3-2-0--3-|-2-0--3-2-0--3-2-0--|-3-2---|
||--0--3-2-0--3-2-0--|-3-2-0--3-2-0--3-|-2-0--3-2-0--3-2-0--|-3-2---|


 Chorus
  E. E E E. E E E.   E E E. E E E.  Q  E. E E E. E E E. E E E. E E
|------------------|-------------------------------------------------||
|------------------|------------------------------------------------o||
|------------------|-------------------------------------------------||
|-0--3-2-0--3-2-0--|-3-2-0--3-2-0------0--3-2-0--3-2-0--3-2-0--3-2---||
|-0--3-2-0--3-2-0--|-3-2-0--3-2-0------0--3-2-0--3-2-0--3-2-0--3-2--o||
|-0--3-2-0--3-2-0--|-3-2-0--3-2-0------0--3-2-0--3-2-0--3-2-0--3-2---||
                                    H


   Breakdown
    Q=190                                                 1.
    PM------------------------------------------------|
    E E E E E E E E   E E E E E E E E   E E E E E E E E   E E E E E E E E
||------------------|-----------------|-----------------|-------------------||
||o-----------------|-----------------|-----------------|------------------o||
||------------------|-----------------|-----------------|-------------------||
||--0-2-1-0-0-2-1-0-|-0-2-1-0-0-2-1-0-|-0-2-1-0-0-2-1-0-|-0-3-0-5-0-7-0-9---||
||o-0-2-1-0-0-2-1-0-|-0-2-1-0-0-2-1-0-|-0-2-1-0-0-2-1-0-|-0-3-0-5-0-7-0-9--o||
||--0-2-1-0-0-2-1-0-|-0-2-1-0-0-2-1-0-|-0-2-1-0-0-2-1-0-|-0-3-0-5-0-7-0-9---||


  2.
  E E E E    Q  Q   Q Q  Q  Q Q Q  Q  Q Q Q  Q  Q W Q Q  Q Q   Q Q  Q Q Q Q  Q   H    H
|----------------------------------------------------------------------------------------------------------------------------------------------|
|----------------------------------------------------------------------------------------------------------------------------------------------|
|----------------------------------------------------------------------------------------------------------------------------------------------|
|-0-2-1-0---12-12---0-0-12-12-0-0-12-12-0-0-12-12---0-0-12-----0-0-12---0-0-12-------12--------------------------------------------------------|
|-0-2-1-0---12-12---0-0-12-12-0-0-12-12-0-0-12-12---0-0-12-----0-0-12---0-0-12-------12--------------------------------------------------------|
|-0-2-1-0---12-12---0-0-12-12-0-0-12-12-0-0-12-12---0-0-12-----0-0-12---0-0-12-------12--------------------------------------------------------|
|
| Gtr II
| E E E E E  E  E E E E  E  E E E  E  E E E  E  E E E E  E E E E E  E E E E  E E E E  E E E E E E E E E E E E E E E E E E E E E E E E E E E E
|----------------------------------------------------------------------------------------------------------------------------------------------|
|----------------------------------------------------------------------------------------------------------------------------------------------|
|----------------------------------------------------------------------------------------------------------------------------------------------|
|-0-2-1-0-0--2--1-0-0-2--1--0-0-2--1--0-0-2--1--0-0-2-1--0-0-2-1-0--0-2-1-0--0-3-0-5--0-7-0-9-0-0-2-1-0-0-2-1-0-0-2-1-0-0-2-1-0-0-2-1-0-0-2-1--|
|-0-2-1-0-0--2--1-0-0-2--1--0-0-2--1--0-0-2--1--0-0-2-1--0-0-2-1-0--0-2-1-0--0-3-0-5--0-7-0-9-0-0-2-1-0-0-2-1-0-0-2-1-0-0-2-1-0-0-2-1-0-0-2-1--|
|-0-2-1-0-0--2--1-0-0-2--1--0-0-2--1--0-0-2--1--0-0-2-1--0-0-2-1-0--0-2-1-0--0-3-0-5--0-7-0-9-0-0-2-1-0-0-2-1-0-0-2-1-0-0-2-1-0-0-2-1-0-0-2-1--|


    Gtr I
    H    Q  Q    Q  Q  H      H    Q  Q    Q  Q  H
||-------------|------------|------------|------------|
||o------------|------------|------------|------------|
||-------------|------------|------------|------------|
||--0----3--0--|-3--0--5----|-0----3--0--|-3--0--1----|
||o-0----3--0--|-3--0--5----|-0----3--0--|-3--0--1----|
||--0----3--0--|-3--0--5----|-0----3--0--|-3--0--1----|


 Chorus
  Q=170
  E. E E E. E E E.   E E E. E E E. Q    E. E E E. E E E.   E E E. E E E.
|------------------|------------------|------------------|-----------------||
|------------------|------------------|------------------|----------------o||
|------------------|------------------|------------------|-----------------||
|-0--3-2-0--3-2-0--|-3-2-0--3-2-0-----|-0--3-2-0--3-2-0--|-3-2-0--3-2-0----||
|-0--3-2-0--3-2-0--|-3-2-0--3-2-0-----|-0--3-2-0--3-2-0--|-3-2-0--3-2-0---o||
|-0--3-2-0--3-2-0--|-3-2-0--3-2-0-----|-0--3-2-0--3-2-0--|-3-2-0--3-2-0----||


    Q=190                                                1.,2.
    PM------------------------------------------------|
    E E E E E E E E   E E E E E E E E   E E E E E E E E   E E E E E E E E
||------------------|-----------------|-----------------|-------------------||
||o-----------------|-----------------|-----------------|------------------o||
||------------------|-----------------|-----------------|-------------------||
||--0-2-1-0-0-2-1-0-|-0-2-1-0-0-2-1-0-|-0-2-1-0-0-2-1-0-|-0-3-0-5-0-7-0-9---||
||o-0-2-1-0-0-2-1-0-|-0-2-1-0-0-2-1-0-|-0-2-1-0-0-2-1-0-|-0-3-0-5-0-7-0-9--o||
||--0-2-1-0-0-2-1-0-|-0-2-1-0-0-2-1-0-|-0-2-1-0-0-2-1-0-|-0-3-0-5-0-7-0-9---||


  3.
   E E E E  Q  Q E E E E E  E  E E Q Q Q Q Q Q Q Q Q Q Q E E E E E  E.  E. E E
|------------------------------------------------------------------------------|
|------------------------------------------------------------------------------|
|------------------------------------------------------------------------------|
|--0-2-1-0-12-12-0-2-1-0-0-12-12-0---0---0---0---0---0---0-0-2-1-0-12--12--0-2-|
|--0-2-1-0-12-12-0-2-1-0-0-12-12-0---0---0---0---0---0---0-0-2-1-0-12--12--0-2-|
|--0-2-1-0-12-12-0-2-1-0-0-12-12-0---0---0---0---0---0---0-0-2-1-0-12--12--0-2-|


  E E  E.  E. E E E E  E.  E.   E E E E  E.  E.
|-----------------------------|--------------------|
|-----------------------------|--------------------|
|-----------------------------|--------------------|
|-1-0-12--12--0-2-1-0-12--12--|-0-2-1-0-12--12-----|
|-1-0-12--12--0-2-1-0-12--12--|-0-2-1-0-12--12-----|
|-1-0-12--12--0-2-1-0-12--12--|-0-2-1-0-12--12-----|


    H    Q  Q    Q  Q  H      H    Q  Q    Q  Q  H
||-------------|------------|------------|-----------|
||o------------|------------|------------|-----------|
||-------------|------------|------------|-----------|
||--0----3--0--|-3--0--5----|-0----3--0--|-3--0--1---|
||o-0----3--0--|-3--0--5----|-0----3--0--|-3--0--1---|
||--0----3--0--|-3--0--5----|-0----3--0--|-3--0--1---|


  Q=170
  E. E E E. E E E.   E E E. E E E. Q    E. E E E. E E E.   E E E. E E E.
|------------------|------------------|------------------|-------------------||
|------------------|------------------|------------------|------------------o||
|------------------|------------------|------------------|-------------------||
|-0--3-2-0--3-2-0--|-3-2-0--3-2-0-----|-0--3-2-0--3-2-0--|-3-2-0--3-2-0------||
|-0--3-2-0--3-2-0--|-3-2-0--3-2-0-----|-0--3-2-0--3-2-0--|-3-2-0--3-2-0-----o||
|-0--3-2-0--3-2-0--|-3-2-0--3-2-0-----|-0--3-2-0--3-2-0--|-3-2-0--3-2-0------||


  E. E E E. E E E.   E E E. E E E. E
|------------------|-----------------|
|------------------|-----------------|
|------------------|-----------------|
|-0--3-2-0--3-2-0--|-3-2-0--3-2-0--3-|
|-0--3-2-0--3-2-0--|-3-2-0--3-2-0--3-|
|-0--3-2-0--3-2-0--|-3-2-0--3-2-0--3-|


  E E. E E E. E E   E. E E E. E E E. E E E. E
|-----------------|---------------------------|
|-----------------|---------------------------|
|-----------------|---------------------------|
|-2-0--3-2-0--3-2-|-0--3-2-0--3-2-0--3-2-0--3-|
|-2-0--3-2-0--3-2-|-0--3-2-0--3-2-0--3-2-0--3-|
|-2-0--3-2-0--3-2-|-0--3-2-0--3-2-0--3-2-0--3-|


  E E. E E E. Q.   E Q.   E Q.   E Q.  E. E E Q  E E Q  E E Q.
|----------------------------------------------------------------|
|----------------------------------------------------------------|
|----------------------------------------------------------------|
|-2-0--3-2-0--0----1-0----1-0----1-0---3--2-3-5--2-3-5--2-3-7----|
|-2-0--3-2-0--0----1-0----1-0----1-0---3--2-3-5--2-3-5--2-3-7----|
|-2-0--3-2-0--0----1-0----1-0----1-0---3--2-3-5--2-3-5--2-3-7----|


  Q.   E Q.   E   Q.   E
|---------------|--------|
|---------------|--------|
|---------------|--------|
|-0----1-0----1-|-0----1-|
|-0----1-0----1-|-0----1-|
|-0----1-0----1-|-0----1-|


  Q.   E Q.   Q  E E Q  E E Q  E E Q.     E Q.   E Q.     E Q.   E Q.
|---------------------------------------|---------------|----------------|
|---------------------------------------|---------------|----------------|
|---------------------------------------|---------------|----------------|
|-0----1-0----5--4-5-7--4-5-7--4-5-9----|-1-0----1-0----|-1-0----1-0-----|
|-0----1-0----5--4-5-7--4-5-7--4-5-9----|-1-0----1-0----|-1-0----1-0-----|
|-0----1-0----5--4-5-7--4-5-7--4-5-9----|-1-0----1-0----|-1-0----1-0-----|


  E. E E Q  E E Q    E E Q.   E Q.     E Q.   E Q.     E Q.
|------------------|-----------------|---------------|---------|
|------------------|-----------------|---------------|---------|
|------------------|-----------------|---------------|---------|
|-3--2-3-5--2-3-5--|-2-3-7----1-0----|-1-0----1-0----|-1-0-----|
|-3--2-3-5--2-3-5--|-2-3-7----1-0----|-1-0----1-0----|-1-0-----|
|-3--2-3-5--2-3-5--|-2-3-7----1-0----|-1-0----1-0----|-1-0-----|


  Q. E Q. E Q. E Q
|---------------------|
|---------------------|
|---------------------|
|-7--5-7--5-7--9-5----|
|-7--5-7--5-7--9-5----|
|-7--5-7--5-7--9-5----|


    H    Q  Q    Q  Q  H      H    Q  Q    Q  Q  H
||-------------|------------|------------|------------||
||o------------|------------|------------|-----------o||
||-------------|------------|------------|------------||
||--0----3--0--|-3--0--5----|-0----3--0--|-3--0--1----||
||o-0----3--0--|-3--0--5----|-0----3--0--|-3--0--1---o||
||--0----3--0--|-3--0--5----|-0----3--0--|-3--0--1----||


  E. E E E. E E E.   E E E. E E E. Q    E. E E E. E E E.   E E E. E E E.
|------------------|------------------|------------------|------------------|
|------------------|------------------|------------------|------------------|
|------------------|------------------|------------------|------------------|
|-0--3-2-0--3-2-0--|-3-2-0--3-2-0-----|-0--3-2-0--3-2-0--|-3-2-0--3-2-0-----|
|-0--3-2-0--3-2-0--|-3-2-0--3-2-0-----|-0--3-2-0--3-2-0--|-3-2-0--3-2-0-----|
|-0--3-2-0--3-2-0--|-3-2-0--3-2-0-----|-0--3-2-0--3-2-0--|-3-2-0--3-2-0-----|


  H    Q  Q    Q  Q  H      H    Q  Q    Q  Q  H
|------------|------------|------------|------------|
|------------|------------|------------|------------|
|------------|------------|------------|------------|
|-0----3--0--|-3--0--5----|-0----3--0--|-3--0--1----|
|-0----3--0--|-3--0--5----|-0----3--0--|-3--0--1----|
|-0----3--0--|-3--0--5----|-0----3--0--|-3--0--1----|


    E. E E E. E E E.   E E E. E E E. Q
||-------------------|------------------|
||o------------------|------------------|
||-------------------|------------------|
||--0--3-2-0--3-2-0--|-3-2-0--3-2-0-----|
||o-0--3-2-0--3-2-0--|-3-2-0--3-2-0-----|
||--0--3-2-0--3-2-0--|-3-2-0--3-2-0-----|


  E. E E E. E E E.   E E E. E E E.     3x
|------------------|-------------------||
|------------------|------------------o||
|------------------|-------------------||
|-0--3-2-0--3-2-0--|-3-2-0--3-2-0------||
|-0--3-2-0--3-2-0--|-3-2-0--3-2-0-----o||
|-0--3-2-0--3-2-0--|-3-2-0--3-2-0------||




--------------------------------------------------------------------------------


Duration Legend
---------------
W - whole; H - half; Q - quarter; E - 8th; S - 16th; T - 32nd; X - 64th; a - acciaccatura
+ - note tied to previous; . - note dotted; .. - note double dotted
Uncapitalized letters represent notes that are staccato (1/2 duration)
Irregular groupings are notated above the duration line
Duration letters will always appear directly above the note/fret number it represents the
duration for.  Duration letters with no fret number below them represent rests.  Multi-
bar rests are notated in the form Wxn, where n is the number of bars to rest for.  Low
melody durations appear below the staff

Tablature Legend
----------------
 h   - hammer-on
 p   - pull-off
 b   - bend
 pb  - pre-bend
 r   - bend release (if no number after the r, then release immediately)
 /\  - slide into or out of (from/to "nowhere")
 s   - legato slide
 S   - shift slide
 - natural harmonic
[n]  - artificial harmonic
n(n) - tapped harmonic
 ~   - vibrato
 tr  - trill
 T   - tap
 TP  - trem. picking
 PM  - palm muting
\n/  - tremolo bar dip; n = amount to dip
 \n  - tremolo bar down
 n/  - tremolo bar up
/n\  - tremolo bar inverted dip
 =   - hold bend; also acts as connecting device for hammers/pulls
 <> - volume swell (louder/softer)
 x   - on rhythm slash represents muted slash
 o   - on rhythm slash represents single note slash

Misc Legend
-----------
 |  - bar
||  - double bar
||o - repeat start
o|| - repeat end
*|  - double bar (ending)
 :  - bar (freetime)
 $  - Segno
 &  - Coda
Tempo markers -  = BPM(8/16=s8/s16), where s8 = swing 8ths, s16 = swing 16ths
            
Hard to play? Try these video lessons and learn fast. | Correct




comments powered by Disqus
↑ Back to top | Tablatures and chords are parodies/interpretations of the original songs. You may use it for private study, scholarship, research or language learning purposes only