» » »

None More Black, Zing-pong Tabs (ver.1)

Artists:  A B C D E F G H I J K L M N O P Q R S T U V W X Y Z # 

Zing-pong Tabs (ver.1)

None More Black Tabs
 Rating:
4/5 (4 votes)
Zing-pong lessons Tabs too difficult? Try these video lessons and learn fast
1
                Intro
---------------------------------------------------------|
---------------------------------------------------------|
-7>9-12~---------------12~-------------------------------|
-7>9-12~-------------------------------------------------|
-5>7-10~--------10~--------------------------------------|
---------------------------------------------------------|

Verse
-----------------------------------------------------------------------------------------------|
-----------------------------------------------------------------------------------------------|
-12*9-899----12*9-999----12*9-999-7>9-99-7>99---11*7-777--12*11-111111--12*9-999-7>999-7>999---|
-12*9-899----12*9-999----12*9-999-7>9-99-7>99---11*7-777--12*11-111111--12*9-999-7>999-7>999---|
-10*7-677----10*7-777----10*7-777-5>7-77-5>77---9-*5-555--10*9--9 
x4
-----------------------------------------------------------------------------------------------|

chorus
----------------------             ----------------------|
----------------------             ----------------------|
-7-77----------999----             -7-7------------------|
-7-77-9-99-2---999----             -7-7--------0-2-------|
-5-55-9-99-2---777----             -5-5-----024--2-------|
------7-77-0---------- x3, than    --------------0-------|

verse

chorus

bridge
---------------------------------------------------------|
---------------------------------------------------------|
---------9-9-------7-7----7>9-9-7-6-6--22-66-777---------|
-2-----0-9-9-----0-7-7----7>9-9-7-6-6--22-64-777---------|
-2--024--7-7--024--5-5----5>7-7-5-4-4--00-44-555---------|   x4
-0-------------------------------------------------------|

outro/soloish part
----------------------------------------------------------------------|
--------------------7b-7b---------------------------------------------|
----------99-9-9-9--------987-7~7-7-7-99-7-6-666--------2-66-77-------|
------0---99-9-9-9--------------7-7-7-99-7-6-666-----0--2-66-77-------|
---024----77-7-7-7--------------5-5-5-77-5-4-444--024---0-44-55-------|
----------------------------------------------------------------------|
             U U U

--------------------------------------------------|
--------------------7b-7b-------------------------|
----------99-9-9-9--------987-7~7-7-7-99-7-6-666--|
------0---99-9-9-9--------------7-7-7-99-7-6-666--|
---024----77-7-7-7--------------5-5-5-77-5-4-444--|
--------------------------------------------------|
             U U U

outro outro
------------------------------------------------------------------------------|
------------------------------------------------------------------------------|
------222-666-777-999-666-777-999-111-666-777-999-11121414141414141414--------|
----0-222-666-777-999-666-777-999-111-666-777-999-----------------------------|
-024--000-444-555-777-444-555-777-999-444-555-777-99101212121212121212--------|
------------------------------------------------------------------------------|

---------------------------|
---------------------------|
---12-9-99--12-9-79--------|
---12-9-99--12-9-79--------|
---10-7-77--10-7-57--------|
---------------------------|


I know it's not 100% accurate, but it's damn near close.
~soulpower
            
Submit corrections

comments powered by Disqus
↑ Back to top | None More Black Tabs for Zing-pong. Lyrics for acoustic guitar and electric guitar. 1 Tablatures and chords are parodies/interpretations of the original songs. You may use it for private study, scholarship, research or language learning purposes only