» » »

Risk Management Bass tabs (ver.1)

Artists:  A B C D E F G H I J K L M N O P Q R S T U V W X Y Z # 

Risk Management Bass tabs (ver.1)

None More Black
Rating:
0/5 (0 votes)

Hard to play? Try these video lessons and learn fast.
                NONE MORE BLACK

main riff
G-----------------|
D-----------------|
A--55--555--------|
E----------66-55--|

fill
G----------|
D----------|
A-------8--|
E-3-5-6----|

BRIDGE
G--------------------|
D--------------------|
A--5-6-7-------------|
E---------5-55-5-55--|

OUTRO
G-----------------|	G-----------------|
D-----------------|	D-----------------|
A--55--555--------| X4 	A--77--777--------|
E----------66-55--|	E----------88-77--|
            
Hard to play? Try these video lessons and learn fast. | Correct




comments powered by Disqus
↑ Back to top | Tablatures and chords are parodies/interpretations of the original songs. You may use it for private study, scholarship, research or language learning purposes only