» » »

None More Black, Never Heard Of Cordurouy Tabs (ver.1)

Artists:  A B C D E F G H I J K L M N O P Q R S T U V W X Y Z # 

Never Heard Of Cordurouy Tabs (ver.1)

None More Black Tabs
 Rating:
4/5 (4 votes)
Never Heard Of Cordurouy lessons Tabs too difficult? Try these video lessons and learn fast
1
                Intro A D Palm Muted (Heavy)

A D
I've taken tongue to pen & ink to blood stream...the venemous kind.
A D
I've spilled my guts on your favorite blue jeans, and you didn't mind.
A D
It's not the way I want it. It's just the way I see it.
A D
I wish I didn't need it. On the inside, the venom's not kind.

D B D

E------------|
B------------|
G------------|
D---------5--|
A-----5-5----|
E-7-7--------|

B A F# G


C D A C /// C D F# G
I wish I was a little more rock and less complicated.
				G A B C (Palm Muted)
I wish I was a little more rock. This time it's not right.

E------------------------------------------------|
B------------------------------------------------|
G--9-9-9-9-9-9-7-6-7-7-9-7-6-7-7-9-7-6-7-6-------|x2
D------------------------------------------------|
A------------------------------------------------|
E------------------------------------------------|

A D
The antedote. It's all in the pre-screen and losing my mind.
A D
I'll kill the chord instead of the rhyme scheme, and everything's fine.
A D
It's not the way I want it. It's just the way I see it.
A D
I wish I didn't feel it. I wish I didn't need it. On the inside, the venom feels fine.

D B D


E------------|
B------------|
G------------|
D-----9-9-7--|
A------------|
E-7-7--------|

B A F# G


C D A C /// C D F# G
I wish I was a little more rock and less complicated.
				G A B C (Palm Muted)
I wish I was a little more rock. This time it's not right.

G A D B C

End on C
            
Submit corrections

comments powered by Disqus
↑ Back to top | None More Black Tabs for Never Heard Of Cordurouy. Lyrics for acoustic guitar and electric guitar. 1 Tablatures and chords are parodies/interpretations of the original songs. You may use it for private study, scholarship, research or language learning purposes only