>
 >
Vincent

Vincent Guitar Tabs

Nofx - Vincent chords, tabs, tablatures, lyrics

Guitar lessons | Add/correct | Request | Top 50 tabs Artists:  A B C D E F G H I J K L M N O P Q R S T U V W X Y Z 0-9

Vincent Guitar Tabs – Nofx

CD, Sheet music, Poster

Do you like Vincent? Share with your friends now
Tabs
VINCENT by NOFX. Album : Survival Of The Fattest (1997?)                  1/2
Great riffs that fit superly together in this song! Original version by Don
McLean.
A=left guitar   B=right guitar   A&B=both
:
# intro #A   !play all notes 10X!
E-----------------------------------------------------------|
B-----------------------------------------------------------|
G---7-------------------------------------------------------|
D---7-------------2-------------5-------------7-------------|
A---5-------------2-------------5-------------7-------------|
E-----------------0-------------3-------------5-------------|
# intro #B
E-----------------------------------------------------------|
B-----------------------------------------------------------|
G-----------------------------------------------------------|
D-----------------------------------------------------------|
A----9-7-5-7-97----9-7-5-7-97----9-7-5-7-97----9-7-5-7-97---|
E-----------------------------------------------------------|
:
# verse #A   *=play 32X with palm-muting
E--------------------------|
B----*---------------------|
G---7----------------------|
D---7----------------------|
A---5----------------------|
E--------------------------|
# verse #B
E--------------------------|
B--------------------------|
G---7-------7--7--7--7-7---|
D---7-------7--7--7--7-7---|
A---5-------5--5--5--5-5---|
E--------------------------|
:
# verse-part2 #A   *=play 12X
E----------------------------------------------------------------------------|
B---------------------------------------------------7-77-8-7-5-7-7-77-8-7-5-7|
G----*-----------*-----------*-----------*----------7-77-7-7-7-7-7-77-7-7-7-7|
D---2-----------2-----------5-----------7------------------------------------|
A---2-----------2-----------5-----------7------------------------------------|
E---0-----------0-----------3-----------5------------------------------------|
# verse-part2 #B   *=play 6X   #=play 20X
E----------------------------------------------------------------------------|
B----------------------------------------------------#-----------------------|
G---------------------------------------------------7------------------------|
D----*-----*-----*-----*-----*-----*-----*-----*----7------------------------|
A--10-----9-----7-----5-----5-----5-----4-----4-----5------------------------|
E----------------------------------------------------------------------------|
:
Then play AverseA or BverseB and Averse-part2A or Bverse-part2B.
:
# chorus #A   *=play 6X   #=play 12X   p=use some palm-muting
E-----------------------------------------------------------------------|
B--------------------*-------#-----------------------#------------------|
G----#p------#------7----*--4--------#-------#------4--------#p------#--|
D---2-------5-------7---2---4-------2-------2-------4-------2-------5---|
A---2-------5-------5---4---2-------2-------2-------2-------2-------5---|
E---0-------3-----------------------0-------0---------------0-------3---|
# chorus #B
E-----------------------------------------------------------------------|
B--------------------*-------#------------------------------------------|
G----#p------#------7----*--4--------#-------#-------#-------#p------#--|
D---2-------5-------7---2---4-------2-------5-------4-------2-------5---|
A---2-------5-------5---4---2-------2-----------------------2-------5---|
E---0-------3-----------------------0-----------------------0-------3---|
:
to next page...
VINCENT                                                                   2/2
:
Then play AintroA or BintroB, AverseA or BverseB (last note X2),
Averse-part2A or Bverse-part2A, AverseA or BverseB (last note X2),
Averse-part2A or Bverse-part2B and AchorusA or BchorusB.
:
# chorus3 #A&B   *=play 6X   #=play 12X                                      >
E-----------------------------------------------------------3---------------->
B----#-------#-----------------------#-------#--------------3---------------->
G---7-------7--------#-------#------7-------4---------------4-------7---5---4>
D---7-------7-------2-------7-------7-------4-------2-------5-------7---5---4>
A---5-------5-------2-------7-------5-------2-------2-------5-------5---3---2>
E-------------------0-------5-----------------------0-------3---------------->

-----------------------|
-----------------------|
----#-------#-------#--|
---2-------5-------7---|
---2-------5-------7---|
---0-------3-------5---|
:
# outro #B   !A plays introA (end with first note)!
E-------------------------------------------------------------|
B-------------------------------------------------------------|
G-------------------------------------------------------------|
D-------------------------------------------------------------|
A----9-7-5-7-97-5--9-7-5-7-97-5--9-7-5-7-97-4--9-7-5-7-97-5---|
E-------------------------------------------------------------|
:
Great!





Comments


Popular Nofx tabs & chords
Falling In-Love Hidden Track Bass Tabs
Mean Guys Suck Bass Tabs
Release The Hostages 2 Bass Tabs
Liza And Louise Chords
Bath Of Least Resistance Tabs
Death Of John Smith 1 Tabs
Green Corn 1 Tabs
Jaw Knee Music Intro Tabs
Scavenger Type Live Tabs
Seeing Double At The Triple Rock 1 Tabs


Song lyrics



↑ Back to top | Tablatures and chords are parodies/interpretations of the original songs. You may use it for private study, scholarship, research or language learning purposes only
© 2014 AZChords.com Contact us | Privacy policy | DMCA | Add/correct tabs | Request tabs | Top 50 tabs