» » »

Nofx, New Happy Birthday Song? Tabs (ver.1)

Artists:  A B C D E F G H I J K L M N O P Q R S T U V W X Y Z # 

New Happy Birthday Song? Tabs (ver.1)

Nofx Tabs
Rating:
0/5 (0 votes)
Hard to play? Try these video lessons and learn fast.
                NEW HAPPY BIRTHDAY SONG? by NOFX. Album : Surfer 7" (2001)
"Happy" birthday!
:
# once again they *** up # *=play 3X
E---------------------------------------|
B--------------------------------*------|
G--------*--5----------------*--5---7---|
D-------5---5---------------5---5---7---|
A-------5---3---------------5---3---5---|
E--15\--3---3----------15\--3---3---5---|
:
# rest of the song # *=play 3X #=play 4X palm-muted                 >
E--|----|2X|-------|-----|2X|------|-------------------------------->
B--|-----*---*-----|---------------|-*---*---------------*---------->
G--|-*--7---9----*-|-----#---#-----|7---7----*---*---*--9----*---*-->
D--|7---7---9---5--|-#--7---9----#-|7---7---2---2---7---9---4---4--->
A--|7---5---7---5--|7---5---7---7--|5---5---2---2---7---7---4---4--->
E--|5---5---7---3--|5-----------5--|5---5---0---0---5---7---2---2--->
rest of the song
-------------------------------------------------------|
----*---*---*---*-------*---*---*-------*---*----------|
---7---7---9---9----*--7---9---9----*--7---9----*------|
---7---7---9---9---7---7---9---9---7---7---9---5---7\--|
---5---5---7---7---7---5---7---7---7---5---7---5---7\--|
---5---5---7---7---5---5---7---7---5---5---7---3---5\--|
:
And that's all about it!
            

comments powered by Disqus
↑ Back to top | Nofx Tabs for New Happy Birthday Song?. Lyrics for acoustic guitar and electric guitar. Tablatures and chords are parodies/interpretations of the original songs. You may use it for private study, scholarship, research or language learning purposes only