» » »

Nofx, Lori Meyers Tabs (ver.1)

Artists:  A B C D E F G H I J K L M N O P Q R S T U V W X Y Z # 

Lori Meyers Tabs (ver.1)

Nofx Tabs
 Rating:
4/5 (4 votes)
Lori Meyers lessons Tabs too difficult? Try these video lessons and learn fast
1
                LORI MEYERS by NOFX. Album : Punk in drublic (1994)                       1/2
Oh yeah! This is one of the coolest songs to play! Incredible feeling and
beautiful pick-slides (I didn't mark them - find 'em yourself)!!
A=left guitar   B=right guitar   A&B=both
:
# intro #A      !play all notes X3!                                 
E-------------------------------------------------------------------|
B----------------------------------------------------------11--11---|
G---7---9--11--11---7---9--11--11---6---7---9---9---6---7-----------|
D-------------------------------------------------------------------|
A-------------------------------------------------------------------|
E-------------------------------------------------------------------|
# intro #B      !play all notes X3!                                                   
E-------------------------------------------------------------------|
B-------------------------------------------------------------------|
G-------------------------------------------------------------------|
D---9---9---9---9---5---5---5---5---7---7---7---7---4---4---4---4---|
A---9---9---9---9---5---5---5---5---7---7---7---7---4---4---4---4---|
E---7---7---7---7---3---3---3---3---5---5---5---5---2---2---2---2---|
:
# verse #A&B    !play all notes X3!
E-------------------------------------------------------------------|
B-------------------------------------------------------------------|
G------------------12--12--12--11-------------------7---7---7--11---|
D---9---9---9---7--12--12--12--11---7---7---7---7---7---7---7--11---|
A---9---9---9---7--10--10--10---9---7---7---7---7---5---5---5---9---|
E---7---7---7---5-------------------5---5---5---5-------------------|
:
# verse2 #A&B   !play all notes X3!     *=play note only once 
E----------------------------------------------------------------------------|
B----------------------------------------------------------------------------|
G------------------12--12--12--11-------------------7---7---7----*---*---*---*
D---9---9---9---7--12--12--12--11---7---7---7---7---7---7---7---1---1---1---1|
A---9---9---9---7--10--10--10---9---7---7---7---7---5---5---5---1---1---1---1|
E---7---7---7---5-------------------5---5---5---5---------------0---0---0---0|
:
# verse3 #A&B   !play all notes X3!
E-------------------------------------------------------------------|
B-------------------------------------------------------------------|
G------------------12--12--12--11-----------------------------------|
D---9---9---9---7--12--12--12--11---7---7---7---7---4---4---4---4---|
A---9---9---9---7--10--10--10---9---7---7---7---7---4---4---4---4---|
E---7---7---7---5-------------------5---5---5---5---2---2---2---2---|
:
Then play verse2A&B.
:                                                #=play X3, no palm-muting
# bridge #A&B   !play all notes palm-muted X3!   *=play once, no palm-muting 
E------------------------------------------------------------------->
B----------------------------------------------------*-------------->
G---------------------------------------------------7--------------->
D---9---9---9---7---5---5---5---4---7---7---7---7---7--------------->
A---9---9---9---7---5---5---5---4---7---7---7---7---5--------------->
E---7---7---7---5---3---3---3---2---5---5---5---5------------------->
bridgeA&B
----------------------------------------------------*-----------#--|
---------------------------------------------------7----------11---|
---9---9---9---7---5---5---5---4---7---7---7---7---7----------11---|
---9---9---9---7---5---5---5---4---7---7---7---7---5-----------9---|
---7---7---7---5---3---3---3---2---5---5---5---5-------------------|
:
# verse4 #A&B   !play all notes X3!     (I know what regradition...)
E-------------------------------------------------------------------|
B-------------------------------------------------------------------|
G------------------12--12--12--11-------------------7---7---7---7---| >>>>>
D---9---9---9---7--12--12--12--11---7---7---7---7---7---7---7---7---| to next
A---9---9---9---7--10--10--10---9---7---7---7---7---5---5---5---5---| page...
E---7---7---7---5-------------------5---5---5---5-------------------|
LORI MEYERS                                                               2/2
:
# verse5 #A&B   !play all notes X3!      Slow rhythm 
E-------------------------------------------------------------------|
B-------------------------------------------------------------------|
G------------------12--12--12--12-----------------------------------|
D---9---9---9---9--12--12--12--12---7---7---7---7---4---4---4---4---|
A---9---9---9---9--10--10--10--10---7---7---7---7---4---4---4---4---|
E---7---7---7---7-------------------5---5---5---5---2---2---2---2---|
:                                    
Then play introA or introB.
:
# outro #A      !play all notes X3!     %=pause
E-------------------------------------------------------------------|
B---------------------------------------------------------%-11-11---|
G---7---9--11---9---7---9--11--11---6---7---9---9---%-6-7-----------|
D-------------------------------------------------------------------|
A-------------------------------------------------------------------|
E-------------------------------------------------------------------|
# outro #B      !play all notes X3!     %=pause                                       
E-------------------------------------------------------------------|
B-------------------------------------------------------------------|
G-------------------7---7---7---7--14--14--14--14-----12----11------|
D---9---9---9---9---7---7---7---7--14--14--14--14-----12----11------|
A---9---9---9---9---5---5---5---5--12--12--12--12---%-10--%--9------|
E---7---7---7---7---------------------------------------------------|
:
Then play introA or introB and outroA or outroB and slide down the volume.
Outrageous!
            
Submit corrections

comments powered by Disqus
↑ Back to top | Nofx Tabs for Lori Meyers. Lyrics for acoustic guitar and electric guitar. 1 Tablatures and chords are parodies/interpretations of the original songs. You may use it for private study, scholarship, research or language learning purposes only