>
 >
The Climb

The Climb Guitar Tabs

No Doubt - The Climb chords, tabs, tablatures, lyrics

Guitar lessons | Add/correct | Request | Top 50 tabs Artists:  A B C D E F G H I J K L M N O P Q R S T U V W X Y Z 0-9

The Climb Guitar Tabs – No Doubt

CD, Sheet music, Poster

Do you like The Climb? Share with your friends now
ChordsTabsUkulele
INTRO: 

    Gm                Eb          Gm                Eb 
E:-------------------------------------------------------------------- 
B:-------------------------------------------------------------------- 
G:---------------------------------------------------------3---------- 
D:--3-sl-5--3-----7-8-------------3-sl-5-3----7--8-------5---5-------- 
A:-------------5------6--5------------------5-------6----------6-5---- 
E:--------------------------6--------------------------6------------6- 

LEAD RIFF THAT LEADS INTO VERSE: 

E:-------------------------------------- 
B:-------------------------------------- 
G:----------15-------15-17-17b-15h17p15- 
D:----15-17----15 17-------------------- 
A:-17----------------------------------- 
E:-------------------------------------- 

VERSE: just single strums of Gm and then Eb 

RIFF THAT GOES INTO PRE CHORUS: 

E:---------8-------------------------------------------6--------------- 
B:-------8---8---8-h-10-------11-10h11p10--------6-6h8---6h8----------- 
G:-----8-------8--------10----------------10---7-------------7---8-7--- 
D:--10---------------------10----------------8-----------------8-----8- 
A:--------------------------------------------------------------------- 
E:--------------------------------------------------------------------- 

PRE CHORUS: 

    Gm                         Eb 
E:--------3----------------------- 
B:------3---3-------------------8- 
G:----3-------------------------8- 
D:--5---------------------------6- 
A:-------------------------------- 
E:-------------------------------- 

THE "with some luck part" is the same as the riff that leads to pre chorus 

THEN THE CHORUS IS: 
Eb Ab Db C F Bb 

Then right after the "to the clouds" part with the horns and stuff, play these chords (palm mute them like the chorus) - Bb Cb Db 

The Interlude part is the same chords as above. 

Then comes the "if i keep it up part" 

E:-6------6-------7-----7-------8-----8-----7------7------ 
B:---8--------------8-------------8-----8-----8-------8--- 
G:-----8-----8--8-----8----8-8------8-----8-----8-------8- (repeat that) 
D:-------------------------------------------------------- 
A:-------------------------------------------------------- 
E:-------------------------------------------------------- 

THE REALLY REALLY LONG OUTRO: One guitar is doing the verse chords while one plays leads. 

E:--------------------------------6 8 8b(8)p6----6-8---6-5h6p5----------- 
B:----------------------------4-6h8------------8-----8---------8-6------- 
G:--5b-5p3---3h5-3-......-3-5--------------------------------------7-5-3- 
D:---------5------------------------------------------------------------- 
A:----------------------------------------------------------------------- 
E:----------------------------------------------------------------------- 

E:----------------------------------------------------------- 
B:--------6-------------------------------------------------- 
G:...-5h7---.....--7p5-3-5-5b-5-3-5-6-5-3...------3---------- 
D:--------------------------------------------3h5---5-5.....- 
A:----------------------------------------------------------- 
E:----------------------------------------------------------- 

E:-----3-------5-------6-.........----------------------------- 
B:--------------------------------------6--------3------------- 
G:-2h3---3-3h5---5-5h7--------------5h7---7-7p5-3--3----------- 
D:---------------------------------------------------5........- 
A:------------------------------------------------------------- 
E:------------------------------------------------------------- 

E:---------15---------17-------------18.......- 
B:--------------------------------------------- 
G:-14-h-15----15-h-17-----17-17-h-19----------- 
D:--------------------------------------------- 
A:--------------------------------------------- 
E:--------------------------------------------- 

E:--------------------------------------------------------- 
B:--18b18p15--15------------------------------------------- 
G:---------------15----15h17p15---------------------------- 
D:------------------17----------17-17-15----------------15- 
A:---------------------------------------17-sl-15-13-17---- 
E:--------------------------------------------------------- 

E:--------------------------------------------------------------------- 
B:------------------------------11-11-11-11-11-11-11-11-13-13-13-13-13- 
G:-5b-5-5-5-5-5-3h5-0-5-3--3-sl-12-12-12-12-12-12-12-12-14-14-14-14-14- 
D:--------------------------------------------------------------------- 
A:--------------------------------------------------------------------- 
E:--------------------------------------------------------------------- 

E:------------------------------- 
B:-13-13-15-15-15-15-15-15-15-15- 
G:-14-14-15-15-15-15-15-15-15-15- 
D:------------------------------- 
A:------------------------------- 
E:-------------------------------





Comments


Popular No Doubt tabs & chords
Hella Good 1 Bass Tabs
Marry Me Bass Tabs
Hey You 2 Chords
Running Chords
Sunday Morning Chords
Brand New Day Tabs
Different People Tabs
Sometimes 1 Tabs
Total Hate Tabs
Tragic Kingdom Ukulele


Song lyrics



↑ Back to top | Tablatures and chords are parodies/interpretations of the original songs. You may use it for private study, scholarship, research or language learning purposes only
© 2014 AZChords.com Contact us | Privacy policy | DMCA | Add/correct tabs | Request tabs | Top 50 tabs