» » »

Life Is Life Chords (ver.1)

Artists:  A B C D E F G H I J K L M N O P Q R S T U V W X Y Z # 

Life Is Life Chords (ver.1)

Noah And The Whale
Rating:
3/5 (5 votes)

Tabs too difficult? Try these video lessons and learn fast.
                First Tab, go easy on the new guy! Any queries or advice just hit comment or hit me at 

-------------------------------------------------------------------------------
-------------------------------------------------------------------------------

Tuning: Standard
NO CAPO!!!

*asterix denotes hold note
CHORDS used
       Dm    C     F    Bb
e|-----10----8-----1-----6------|
B|-----10----8-----1-----6------|
G|-----10----9-----2-----7------|
D|-----12----10----3-----8------|
A|-----12----10----3-----8------|
E|-----10----8-----1-----6------|

INTRO w/synth: Dm C F* x2

  Dm      C      F*
Well he used to be somebody

And now he's someone else
  Dm       C     F*
Took apart his old life

Left it on the shelf
    Dm     C    F*
Sick of being someone

He did not admire
   Dm      C    F*
Took up all his old things

Set em all on fire
       Dm    C  F*
He's gonna change

Gonna change his ways
      Dm C F*
Gonna change

Gonna change his ways

CHORUS
         Dm   F         C          Bb
And it feels like his new life can start
        Dm    F   C  Bb
And it feels like heaven

INTERLUDE/BRIDGE
e|-----------------------------------------------------------------------------|
B|-----10---8---6---10---8---6---10---8---6------------------------------------|
G|---------------------------------------------7---5---------------------------|
D|-----------------------------------------------------------------------------|
A|-----------------------------------------------------8-----------------------|
E|-----------------------------------------------------------------------------|


Etcetera

SECOND VERSE

  Dm    C    F*
Left his house at midnight

Resolute and young
   Dm      C     F*
In search of something greater

Than the person he'd become
  Dm      C      F*
Threw his bags on to the back

Of his run down eighties car
  Dm       C       F*
Headed out to god knows where

The distance is too far
  Dm       C    F*
He's gonna change

Gonna change his ways
       Dm C F*
Gonna change

Gonna change his ways

CHORUS

        Dm     F           C       Bb
And it feels like his new life can start
        Dm    F    C Bb
And it feels like heaven
        Dm    F            C        Bb
And it feels like his new life can start
        Dm    F    C Bb
And it feels like heaven

(Your life is your life gotta live like it's your life)

FINAL CHORUS

        Dm     F           C        Bb
And it feels like his new life can start
        Dm     F   C Bb
And it feels like heaven
        Dm     F           C         Bb
And it feels like his new life can start
        Dm     F   C Bb
And it feels like heaven

Play tabbed bit or chords during chorus till end.

DC
            
Tabs too difficult? Try these video lessons and learn fast.


comments powered by Disqus
↑ Back to top | Tablatures and chords are parodies/interpretations of the original songs. You may use it for private study, scholarship, research or language learning purposes only