» » »

Nirvana, You Know You're Right Bass tabs (ver.2)

Artists:  A B C D E F G H I J K L M N O P Q R S T U V W X Y Z # 

You Know You're Right Bass tabs (ver.2)

Nirvana Tabs
 Rating:
4/5 (4 votes)
You Know You're Right lessons Tabs too difficult? Try these video lessons and learn fast
1
                "(2)
Nirvana - You Know You're Right
Song of "Nirvana"



Verse
G|----------------------|
D|----------------------|
A|----------------------|
E|-0--2-2--2--2-2-2-0---|

When Kurt sings "things have never been so swell, I have
Never felt this well" before the chorus play this and also 
In the 2nd verse when he says "nothing ever bothers her
She just wants to love herself"

Bridge
G|------------------------------------|
D|------------------------------------|
A|-5-5-5-5-5-5-5-5--7-7-7-7-7-7-7-7---|
E|------------------------------------|
"Never stay Away Again, I will crawl away for good" --> 1º time
"Things have never been so swell, I have never felt this well" --> 2º time

Bridge 2
G|------------------------------|
D|------------------------------|
A|-5-------5--------7-------7---|
E|------------------------------|
"Things have never been so swell, I have never felt this well" --> 1º time
"Nothing ever bothers her She just wants to love herself" --> 2º time

Chorus
G|---------------------|4x 1º Chorus
D|---------------------|8x 2º Chorus
A|---------------------|
E|-2-2-2-0--0-2-2-2-0--|

G|------------------------------------|1x 1º and 2º Chorus
D|------------------------------------|
A|-5-5-5-5-5-5-5-5--7-7-7-7-7-7-7-7---|
E|------------------------------------|

Song Order:
Verse 8x
Bridge 1 1x
Verse 4x
Bridge 2 1x
Chorus 1x
Verse 8x
Bridge 2 1x
Verse 4x
Bridge 1 1x
Chorus 1x
Verse 21x
"            
Submit corrections

comments powered by Disqus
↑ Back to top | Nirvana Bass for You Know You're Right. Lyrics for acoustic guitar and electric guitar. 1 Tablatures and chords are parodies/interpretations of the original songs. You may use it for private study, scholarship, research or language learning purposes only