» » »

You Know You're Right Bass tabs (ver.1)

Artists:  A B C D E F G H I J K L M N O P Q R S T U V W X Y Z # 

You Know You're Right Bass tabs (ver.1)

Nirvana
Rating:
0/5 (0 votes)

Hard to play? Try these video lessons and learn fast.
                "(1)

Tuning: Half-step down (Eb Ab Db Gb)


~ = let ring
XhY = play X and hammer onto Y
XpY = play X and pull-off onto Y
X/Y = slide from X up to Y
X\Y = slide from X down to Y
* = bend
X> = repeat X several times
(X) = play X gently and quickly

Intro and verse:

Gb|--------------------------------------------
Db|--------------------------------------------  x16
Ab|--------------------------------------------
Eb|--0h2-2-2-2-0-0-0---------------------------

After the first 8:-
I will never bother you
I will never promise too
I will never follow you
I will never bother you

Gb|--------------------------------------------
Db|--------------------------------------------  x1
Ab|--5--5-0-0-5-5-5-0-5--7--7-0-0-7-7~/10-------
Eb|--------------------------------------------

Never speak a word again
I will crawl away for good

Gb|--------------------------------------------
Db|--------------------------------------------  x8
Ab|--------------------------------------------
Eb|--0h2-2-2-2-0-0-0---------------------------

I will move away from here
You won't be affraid of fear
No thought was put into this
I always knew it would come to this

Gb|--------------------------------------------
Db|--------------------------------------------  x1
Ab|--5--5-0-0-5-5-5-0-5--7--7-0-0-7-7~/10-------
Eb|--------------------------------------------

Things have never been so swell
I have never felt this well

Chorus:

Gb|--------------------------------------------
Db|--------------------------------------------  x1
Ab|------------------0-2-3-5-5-5---------------
Eb|--0h2-2-2-2-0-0-0---------------------------


Gb|--------------------------------------------
Db|--------------------------------------------  x1
Ab|--------------------------------------------
Eb|--0h2-2-2-2-0-0-0--0h2-2-2--2--2------------

Pain!

Gb|--------------------------------------------
Db|--------------------------------------------  x1
Ab|------------------0-2-3-5-5-5---------------
Eb|--0h2-2-2-2-0-0-0---------------------------


Gb|--------------------------------------------
Db|--------------------------------------------  x1
Ab|--------------------------------------------
Eb|--0h2-2-2-2-0-0-0--0h2-2-2--2--2------------

Pain!

Gb|--------------------------------------------
Db|--------------------------------------------  x1
Ab|--5--5-0-0-5-5-5-0-5--7--7-0-0-7-7~/10-------
Eb|--------------------------------------------

Pain!         You know you're right

Gb|--------------------------------------------
Db|--------------------------------------------  x4
Ab|--------------------------------------------
Eb|--0h2-2-2-2-0-0-0--0h2-2-2--2--2------------

You know you're right
You know you're right

Verse:

Gb|--------------------------------------------
Db|--------------------------------------------  x8
Ab|--------------------------------------------
Eb|--0h2-2-2-2-0-0-0---------------------------

I'm so warm and calm inside
I longer have to hide
Let's talk about someone else
Steaming soup against her mouth

Gb|--------------------------------------------
Db|--------------------------------------------  x1
Ab|--5--5-0-0-5-5-5-0-5--7--7-0-0-7-7~/10-------
Eb|--------------------------------------------

Nothing really bothers her
She just wants to love herself

Gb|--------------------------------------------
Db|--------------------------------------------  x8
Ab|--------------------------------------------
Eb|--0h2-2-2-2-0-0-0---------------------------

I will move away from here
You won't be affraid of fear
No thought was put into this
I always knew it would come to this

Gb|--------------------------------------------
Db|--------------------------------------------  x1
Ab|--5--5-0-0-5-5-5-0-5--7--7-0-0-7-7~/10-------
Eb|--------------------------------------------

Things have never been so swell
I have never felt this well

Chorus:

Gb|--------------------------------------------
Db|--------------------------------------------  x1
Ab|------------------0-2-3-5-5-5---------------
Eb|--0h2-2-2-2-0-0-0---------------------------


Gb|--------------------------------------------
Db|--------------------------------------------  x1
Ab|--------------------------------------------
Eb|--0h2-2-2-2-0-0-0--0h2-2-2--2--2------------

Pain!

(Repeat all of this 4 times)

Gb|--------------------------------------------
Db|--------------------------------------------  x1
Ab|--5--5-0-0-5-5-5-0-5--7--7-0-0-7-7~/10-------
Eb|--------------------------------------------

Pain!         You know you're right

Gb|--------------------------------------------
Db|--------------------------------------------  x17
Ab|--------------------------------------------
Eb|--0h2-2-2-2-0-0-0--0h2-2-2--2--2------------

You know you're right x17

Bass then stops when Kurt screams Pain! for the last time after the last you know you're right.
"            
Hard to play? Try these video lessons and learn fast. | Correct




comments powered by Disqus
↑ Back to top | Tablatures and chords are parodies/interpretations of the original songs. You may use it for private study, scholarship, research or language learning purposes only