» » »

You Know You're Right Tabs (ver.1)

Artists:  A B C D E F G H I J K L M N O P Q R S T U V W X Y Z # 

You Know You're Right Tabs (ver.1)

Nirvana
Rating:
0/5 (0 votes)

Hard to play? Try these video lessons and learn fast.
                PROPS GO TO: Damir Grandich

NIRVANA - 'You Know You're Right' tab

This is the version that appears on 'Nirvana', their just 
released Greatest hits album.

You should tune down 1/2 step but it's not that necessary.

Intro & Verse (Clean & Palm Muted)
e|--------------------------
B|--------------------------
G|--------------------------
D|----------4------------4--
A|--------4-4-4--------4-4-4
E|--0-0h2-2-2-----0-0-2--2--
This is not exact, just play variations of this.

Bridge (Clean)
e|-------------------------------------
B|-----7--------7--------9--------9----
G|-------7--------7--------9--------9--
D|---------7-----------------9---------
A|---5--------5-----5--7--------7-----7
E|-------------------------------------

Pre-Chorus (Distorted)
e|-------------------------------------------------
B|-------------------------------------------------
G|--7--7-7-7-7-7--9--9-9-9-9-9---------------------
D|--7--7-7-7-7-7--9--9-9-9-9-9---------------------
A|--5--5-5-5-5-5--7--7-7-7-7-7---------------------
E|-------------------------------------------------

Chorus (Distorted)
e|-------------------------------------------------
B|-------------------------------------------------
G|-------------------------------------------------
D|-------------------------------------------------
A|---4-4-4-4-------4-4-4-4-------------------------
E|-0-0h2-2-2-0---0-0h2-2-2-0-----------------------

[Verse]
I will never bother you
i will never promise to
I will never follow you
I will never bother you

[Pre-Chorus]
never say that word again
I will crawl away for good

[Verse]
I will move away from here
You won't be afraid of fear
No thought was put into this
Always known it would come to this

[Pre-Chorus]
Things have never been so swell
I have never failed to fail

[Chorus]
Paaaaaaain! :P (A few times)
You know you're right

[Verse]
Need someone to co-inside
I no longer have to hide
Let's talk about someone else
Stinging Silver begins to melt

[Bridge]
Nothing ever bothers her
She just wants to love herself

[Verse]
I won't move away from here
You will be afraid of fear
No thought was put into this
Always known it'd come to this

[Pre-Chorus]
Things have never been so swell
I have never failed to fail

[Chorus]
Paaaaaaain! :P (A lot of times)
You know you're right (A lot of times)

Feedback solo mess :)

And thats it!

This is my interpretation. (c) Me :)
            
Hard to play? Try these video lessons and learn fast. | Correct




comments powered by Disqus
↑ Back to top | Tablatures and chords are parodies/interpretations of the original songs. You may use it for private study, scholarship, research or language learning purposes only