» » »

The Man Who Sold Tabs (ver.2)

Artists:  A B C D E F G H I J K L M N O P Q R S T U V W X Y Z # 

The Man Who Sold Tabs (ver.2)

Nirvana
Rating:
0/5 (0 votes)

Hard to play? Try these video lessons and learn fast.
                Words and music by David Bowie
As recorded by Nirvana in the album "Unplugged in New York"
Tablature made by Ricardo Contreras (Monterrey, N.L., Mexico)


Rif 1:                                                  Fig. 2
=46ig.3
        e-------------------------              e-----     e---
        b-------------------------              b-----     b--0
        g--2-2-2-0---2s0s2-0-                   g--2--     g--0
        d-------------------------              d-----     d---
        a-------------------------              a-----     a---
        e-------------------------              e-----     e---

In the Intro. Rif 1 repeats 6 times and ends in th fig. 2.
The Intro folows this progresion of chords: G,F,Fsus2,F,G,F,Fsus2,F,G,Dm
=46ig. 3 is the preparation to for the lead guitar to start with the"A" chor=
d.


Verse 1:
                             A
        We passed upon the stairs
                          Dm
        spoke of was and when
                           A
        Although I wasn=B4t there
                           F/C
        He said I was his friend
                           C/G
        which came as a surprise
                          A
        I spoke into his eyes
                           Dm
        I thought you died alone
                          C
        a long long time ago.
Chorus:
   e-------------------------------------------------
   b-------------------------------------------------
   g------------2-3-5--------------------------------
   d------2-3-5----------------------0-2-3-------3---
   a--3-5----------------------0-1-3---------4-4---4-
   e-----------------------1-3-----------------------
oh no                not me               we never lost..

   e--------------------------------------------------------------
   b--------------------------------------------------------------
   g-----------------------------------2-3-5----------------------
   d-------------0-2-3-----------2-3-5----------------------1-2-3-
   a-------0-1-3-------------3-5----------------------0-1-3-------
   e---1-3----------------------------------------1-3-------------

control          you=B4re face              to face

   e------------------------------
   b--------------6------------0--
   g-------6-6-x--6-----6---6--0--
   d-------6-6-x--6-----6---6-----
   a-------4-4-x--4-----4---4-----
   e------------------------------

    with the man who sold the world

Then go back to rif 1 and play it four times, the first time after playing
the chorus go to verse 2, the second time play again the chorus then go to
the "Outro".

Verse 2:
                                 A
        I laughed and shook his hand
                             Dm
        and may my way back home
                                  A
        I searched for form and land
                                F/C
        for years and years I roamed
                           C/G
        I glazed a gazely stare

        (At the millions here)
      A                     Dm
        I must have died a lone
                          C
        a long long time ago

Chorus


Outro: (from rif 1)

e-------------------------------------------------------------
b-------------------------------------------------------------
g--2s8-9-10s9---9--9-9-9s2-2-2-0-2s3s2-0-2-2-2s10-10-10--10---
d-------------------------------------------------------------
a-------------------------------------------------------------
e-------------------------------------------------------------

e-------------------------------------------------------------
b-------------------------------------------------------------
g--10--10-10--10s9-9-9s7-7--7--7--7-7--7-7--7s9-9-9-9-9-9-9---
d-------------------------------------------------------------
a-------------------------------------------------------------
e-------------------------------------------------------------

e---------------------------------------------------------------------------
-------
b---------------------------------------------------------------------------
-------
g--9s2--2-2-2-0-2s3s2-0-2-2-2-0-2s10-10-10--10-10-10--10--10-10-10s9-9-9s7-7
---7-7-
d---------------------------------------------------------------------------
-------
a---------------------------------------------------------------------------
-------
e---------------------------------------------------------------------------
-------

e---------------------------------------------------------------------------
-------
b---------------------------------------------------------------------------
------0
g-7-7-7---7-7--7-7s8s9-9-9---9-9-9--9-9--9-9--9-9s2-2-2-2-0-2s3s2-0-2-2-2-0-
2s3s2-0
d---------------------------------------------------------------------------
-------
a---------------------------------------------------------------------------
-------
e---------------------------------------------------------------------------
-------

e--------
b--------
g--2-----
d--------
a--------
e--------


coments welcomed.Tab done by Ricardo Contreras. Hey if someone has a tab of
"wicked garden" by STP I will apreciate if you mail it to me.
            
Hard to play? Try these video lessons and learn fast. | Correct




comments powered by Disqus
↑ Back to top | Tablatures and chords are parodies/interpretations of the original songs. You may use it for private study, scholarship, research or language learning purposes only