» » »

Nirvana, The Eagle Has Landed Tabs (ver.1)

Artists:  A B C D E F G H I J K L M N O P Q R S T U V W X Y Z # 

The Eagle Has Landed Tabs (ver.1)

Nirvana Tabs
Rating:
0/5 (0 votes)
The Eagle Has Landed lessons Tabs too difficult? Try these video lessons and learn fast
                Tuning: half a step down
Distortion: Heavy
Bass: 2
Mid: 6
Treble: 5
Tempo: Fast Rock

I know this looks just like another TAB of tourette's, but it's a bit different because there's a solo which doesn't appear in the In Utero version.

Main part ("Verse"):

The first tone is an F supported by feedback ...
-----------------------------------
-----------------------------------
-----------------------------------
--4-4-4-4-8-8-8-8-9-9-9-9-5-5-5-5-- play 8 times
--4-4-4-4-8-8-8-8-9-9-9-9-5-5-5-5--
--2-2-2-2-6-6-6-6-7-7-7-7-3-3-3-3--

Chorus (or whatever you can call it):
------------------------------------------
------------------------------------------
----4-3--3-4\3\0-----4-3--3-4\3\0--------- play 8 times
--4----------------4----------------------
--4----------------4----------------------
--2----------------2----------------------

Solo: 
----------------------------/16-16-16\---------------------------9-9-9-9-9----
----------------------------/x--x--x\----------------------------9-9-9-9-9-0--
--4-4-4---8-8-8----9-9-9---/15-15-15\----4--4-4-8-8-8-8-8-9-9-9---------------
--4-4-4-0-8-8-8-0--9-9-9-x-------------0-4--4-4-8-8-8-8-8-9-9-9---------------
--2-2-2-0-6-6-6-0--7-7-7-x---------------2--2-2-6-6-6-6-6-7-7-7---------------

------------------------------0-0-----------------------------------
----------------------------0-0-0-----------------------------------
-4--4-4-8-8-8-8-8-8-8-0-3-4-------4--4-4-8-8-8-8-9-9-9-9-5-5-5-5----
-4--4-4-8-8-8-8-8-8-8-------------4--4-4-8-8-8-8-9-9-9-9-5-5-5-5----
-2--2-2-6-6-6-6-6-6-6-------------2--2-2-6-6-6-6-7-7-7-7-3-3-3-3----

The song ends with the F chord and even more feedback ... have fun playing it!!
            
Submit corrections

comments powered by Disqus
↑ Back to top | Nirvana Tabs for The Eagle Has Landed. Lyrics for acoustic guitar and electric guitar. Tablatures and chords are parodies/interpretations of the original songs. You may use it for private study, scholarship, research or language learning purposes only