>
 >
Teen Spirit Easy Tab

Teen Spirit Easy Tab Guitar Tabs

Nirvana - Teen Spirit Easy Tab chords, tabs, tablatures, lyrics

Guitar lessons | Add/correct | Request | Top 50 tabs Artists:  A B C D E F G H I J K L M N O P Q R S T U V W X Y Z 0-9

Teen Spirit Easy Tab Guitar Tabs – Nirvana

CD, Sheet music, Poster

Do you like Teen Spirit Easy Tab? Share with your friends now
Tabs
¡>		
Root Entry(
¢Jr@Q0?MatOST`? (?MMMN0	
 !"#$%&'()*+,-./0123456789:;<>NDS$	

    A.8d 	t 2T

This is my first tab but it sounds perfect.

Drop D tuning.

Intro
E ------------------------------------------------------------------------------
B ------------------------------------------------------------------------------
G ------3-3-3--X-X-X-X---8-8-8-0-0---6-6-6--X-X-X-X--11-11-11-11-11
D ------3-3-3--X-X-X-X---8-8-8-0-0---6-6-6--X-X-X-X--11-11-11-11-11    x 4
A ------3-3-3--X-X-X-X---8-8-8-0-0---6-6-6--X-X-X-X--11-11-11-11-11
D ------3-3-3--X-X-X-X---8-8-8-0-0---6-6-6--X-X-X-X--11-11-11-11-11

Verse riff
E -------1-(Let Ring)-----------------------------------
B ---1--------------------------------------------------
G ------------------------------------------------------
D ------------------------------------------------------
A ------------------------------------------------------
D ------------------------------------------------------

Pre-Chorus
E ---------1----------1----------1----------1------
B ---1----------1----------1----------1------------
G --------------------------------------------------     x 4
D --------------------------------------------------
A --------------------------------------------------
D --------------------------------------------------
The chorus is basically the same as the intro.

The little bit after the chorus
E ----------------------------------------------------------------
B ----------------------------------------------------------------
G ---------------3(bend up)-------------------------------------
D --3-2-3-4-4-------------3--2-3-8-8--6--3-------------------
A --3-2-3-4-4-------------3--2-3-8-8--6--3-------------------
D --3-2-3-4-4-------------3--2-3-8-8--6--3--------------------

E -----------------------------------------------------------------
B -----------------------------------------------------------------
G --------------3(bend up)----------------------------------------                
D --3-2-3-4-4--------------3-2-3--8-8--7-6---------------------
A --3-2-3-4-4--------------3-2-3--8-8--7-6---------------------
D --3-2-3-4-4--------------3-2-3--8-8--7-6---------------------

I wont do the riff because I've seen it done correctly by someone already

An Adam Hayes tab.

	{13CEL5?S?;uqq:u uw+a d)h4
	K	K	M						uK		Times New RomanA.8A.8d
(
¢JrMicrosoft WorksMSWorksWPDoc9qCompObj=U





Comments


Popular Nirvana tabs & chords
Floyd The Barber 3 Bass Tabs
Floyd The Barber 5 Bass Tabs
Here She Comes Now Bass Tabs
Jesus Doesnt Want Me For A Sunbeam 2 Chords
On A Plain 1 Chords
Dumb 2 Tabs
Help Me Tabs
Lake Of Fire 2 Tabs
Somethings In The Way 1 Tabs
Tourette's Tabs


Song lyrics



↑ Back to top | Tablatures and chords are parodies/interpretations of the original songs. You may use it for private study, scholarship, research or language learning purposes only
© 2014 AZChords.com Contact us | Privacy policy | DMCA | Add/correct tabs | Request tabs | Top 50 tabs