» » »

Nirvana, Talk To Me Tabs (ver.2)

Artists:  A B C D E F G H I J K L M N O P Q R S T U V W X Y Z # 

Talk To Me Tabs (ver.2)

Nirvana Tabs
 Rating:
4/5 (4 votes)
Talk To Me lessons Tabs too difficult? Try these video lessons and learn fast
                Talk To Me
By Kurt Cobain - Performed By Nirvana
The Song Was Only Played Twice Based Upon Bootlegs Of Shows, 11/23/1991 In A
Rare Tracks Show Which Also Included Curmudgeon And Oh, The Guilt.  The More
Famous Recording Of It Comes From 11/20/1991 From A Show In Barciella, Spain
Come Up With The Tab.   I Used The Lyrics From The 11/20/1991 Version
Because The Quality Is Better. I Am Desperately Searching For A Good Quality
Copy Of The 11/23/1991 Show.  I Would Appreciate Any Help, Including Just A
Partial Copy Of The Show.

Talk To Me
Verse/Chorus  G5 B5 C5 F5 Bb5 (The B5 Is Just A Slide By Chord)
Pre-Chorus 
---------------------------------------------------
---------------------------------------------------
--3-3-3-3-3-3-4-4-4-4-4-4-5-5-5-5-5-5-6-6-6-6-6-6--
---------------------------------------------------
---------------------------------------------------
---------------------------------------------------

---------------------------------------------------
---------------------------------------------------
--3-3-3-3-3-3-4-4-4-4-4-4-5-5-5-5-5-5-6-6-6-6-6-6--
---------------------------------------------------
---------------------------------------------------
---------------------------------------------------

Talk To Me
Shake it down easy, shake it down sleazy, come on
Shake it down easy, shake yourself, Suzy, come on

Don't let me detain you
Try to ride along
Don't you lie, knowing
I am not sad
I am not silly
I am not chippin'
I am not chippin' away

Talk to me
In your own language, please
In your own
Talk to me
In your own language please

Shake it down easy, make it sound seamy, doll man
Make it sound now, make it full house, sad man

Leader of the band
Makes a mental hell
I won't weather it well
Well I never
Saw it with my arm
Paint it with my heart
Paint it with my eyes and make it right

Lay down easy, lay it down seamy, sad man
Lay down easy, lay it down seamy, sad man

You don't want to hear this
Nothin' but a whore
I will play the leader
With pain
Now you know I'm needy
Lay them down easy
Lay them down easy

Talk to me
In your own language please 

The Power Chord Chart
I Created The Chart For All Of The People Who Are Just Learning To Play The
Guitar And Need Help With Chords From The Songs From Their Favorite Bands.
F5     Bb5     F#5     B5     G5     C5     G#5     C#5     A5     D5
--------3--------------4-------------5---------------6-------------7-
-3------1-------4------2------5------3-------6-------4------7------5-
-1--------------2-------------3--------------4--------------5--------

Bb5     Eb5     B5     E5     C5     F5     C#5     F#5     D5     G5
---------8-------------9-------------10-------------11-----------12--
-8-------6------9------7------10------8------11------9----12-----10--
-6--------------7--------------8--------------9-----------10---------

E
--
--
-1
-2
-2
--

Best

Leo
            
Submit corrections

comments powered by Disqus
↑ Back to top | Nirvana Tabs for Talk To Me. Lyrics for acoustic guitar and electric guitar. Tablatures and chords are parodies/interpretations of the original songs. You may use it for private study, scholarship, research or language learning purposes only