» » »

Nirvana, Swap Meet Tabs (ver.1)

Artists:  A B C D E F G H I J K L M N O P Q R S T U V W X Y Z # 

Swap Meet Tabs (ver.1)

Nirvana Tabs
Rating:
0/5 (0 votes)
Swap Meet lessons Tabs too difficult? Try these video lessons and learn fast
                NIRVANA - Bleach

Swap Meet 

 intro
e------------------------------------------------------------------
b------------------------------------------------------------------
g------------------------------------------------------------------
d--------3--------2---------------3--------2-----------------------
a--------3--------2---------------3--------2-----------------------
e--0--3-----0--3----3^2^0---0--3-----0--3-----3^2^0----------------

e--------------------------------------------------------------------
b--------------------------------------------------------------------
g--------------------------------------------------------------------
d-------3--------2--------------3--------2---------------------------
a-------3--------2--------------3--------2---------------------------
e--0-3-----0--3----3^2^0---0-3-----0--3-----3^2^0--------------------
                                      
 verse
e------------------------------------------------------------------
b------------------------------------------------------------------
g------------------------------------------------------------------
d-------3--------2--------------3--------2-------------------------
a-------3--------2--------------3--------2-------------------------
e--0-3-----0--3----3^2^0---0-3-----0--3-----3^2^0------------------

 choruse
e-------------------------------------------------------------------------
b------------------------------------------------------------------------- 
g--------------3-3-3-3-3-3------------------------------------------------
d--5-5-5-5-5-5-3-3-3-3-3-3------------------------------------------------
a--5-5-5-5-5-5-1-1-1-1-1-1------------------------3-----------------------
e--5-5-5-5-5-5---------------0--3--2--1--0--1--3-----0--3--2--1--0--1--0--

e------------------------------------------------------------------------
b------------------------------------------------------------------------ 
g--------------3-3-3-3-3-3-----------------------------------------------
d--5-5-5-5-5-5-3-3-3-3-3-3-----------------------------------------------
a--5-5-5-5-5-5-1-1-1-1-1-1------------------------3----------------------
e--5-5-5-5-5-5---------------0--3--2--1--0--1--3-----0--3--2--1--0--1--0-

e-----------------------------------------------------------------
b----------------------------------------------------------------- 
g--------------3-3-3-3-3-3----------------------------------------
d--5-5-5-5-5-5-3-3-3-3-3-3---3-3--2-2--1-1-1-1--------------------
a--5-5-5-5-5-5-1-1-1-1-1-1---3-3--2-2--1-1-1-1--------------------
e--5-5-5-5-5-5---------------3-3--2-2--1-1-1-1--/(12)\------------

 solo
e--------------------------------------------------------------------------        
b-----------------------7^5^0--7^5^0--7^5^0--7^5^0-------------------------        
g-------------------------------------------------------------------------- 
d--5---5----5--4--5--4------------------------------5--4--5--4--5--4--5--4-
a----4---4--5--4--5--4------------------------------5--4--5--4--5--4--5--4-
e--------------------------------------------------------------------------

e------------------------------------------------------0----------------
b--7^5^0----7^5^0----0--------------------------7^5^0-----0--7^5^0------
g---------6--------6-----------------------------------6------------6---
d-----------------------5--4--5--4--5--4--5--4--------------------------
a-----------------------------------------------------------------------         
e-----------------------------------------------------------------------

e------------------------------------------------------------
b--------------------------7^5^0--7^5^0----------------------
g------------------------------------------------------------
d--5--4--5--4--5--4--5--4------------------------------------
a-----------4--5---------------------------------------------
e--------------------------------------------/(12)\----------

e-----------------------------------------------------------
b------------------------------------------------------------ 
g------------------------------------------------------------
d--3-3--2-2--1-1-1-1---------0-------------------------------
a--3-3--2-2--1-1-1-1---------0-------------------------------
e--3-3--2-2--1-1-1-1--/(12)\-0-------------------------------
            
Submit corrections

comments powered by Disqus
↑ Back to top | Nirvana Tabs for Swap Meet. Lyrics for acoustic guitar and electric guitar. Tablatures and chords are parodies/interpretations of the original songs. You may use it for private study, scholarship, research or language learning purposes only