» » »

Somthings In The Way Tabs (ver.1)

Artists:  A B C D E F G H I J K L M N O P Q R S T U V W X Y Z # 

Somthings In The Way Tabs (ver.1)

Nirvana
Rating:
0/5 (0 votes)

Hard to play? Try these video lessons and learn fast.
                NIRVANA 
SOMTHING IN TH WAY 
NEVERMIND 
KURDT
DAVE
KRIST
D TUNING 
ACOUSTIC GUITAR
MAIN RIFF 

--------------------------
--------------------------
--------------------------
--------------------------
-----4---4-------0----0---
-4-----4---4--0----0----0-

CHORUS
---------------3---3-------------------------------------------------
---------------2---2------------------------------------------------
---------------0---0-------------------------------------------------
-4-4-4-4-0----------------------------------------------------------
-4-4-4-4-0----------------------------------------------------------

STRUCTURE
verse (main riff) 
chrous 
verse 
chorus
            
Hard to play? Try these video lessons and learn fast. | Correct




comments powered by Disqus
↑ Back to top | Tablatures and chords are parodies/interpretations of the original songs. You may use it for private study, scholarship, research or language learning purposes only