» » »

Nirvana, Something In The Way Tabs (ver.4)

Artists:  A B C D E F G H I J K L M N O P Q R S T U V W X Y Z # 

Something In The Way Tabs (ver.4)

Nirvana Tabs
Rating:
0/5 (0 votes)
Something In The Way lessons Tabs too difficult? Try these video lessons and learn fast
                
Tuning: Standard (e,a,d,g,b,e)
        
Intro/Verse
  repeat several times     play this just before the chorus

e|------------------------|------------------------------| 
B|------------------------|------------------------------| 
G|------------------------|------------------------------|
D|-2-2--2-2--5-5--5-5-----|-555555-----------------------| 
A|-2-2--2-2--5-5--5-5-----|-555555-----------------------| 
E|-0-0--0-0--3-3--3-3-----|-333333-----------------------| 


Chorus 
 Repeat chorus several times (listen to the song)

  Somethings..  way...           ooo...
  Em            C                Em  
   
e|-0-0-0-0-0----0-0-0-0-0-0-0----0-0-0-0-0-0-----------------| 
B|-0-0-0-0-0----1-1-1-1-1-1-1----0-0-0-0-0-0-----------------| 
G|-0-0-0-0-0----0-0-0-0-0-0-0----0-0-0-0-0-0-----------------| 
D|-2-2-2-2-2----2-2-2-2-2-2-2----2-2-2-2-2-2----0-0-0-0-0-0--| 
A|-2-2-2-2-2----3-3-3-3-3-3-3----2-2-2-2-2-2----0-0-0-0-0-0--| 
E|-0-0-0-0-0---------------------0-0-0-0-0-0----0-0-0-0-0-0--| 


Then he plays the verse and chorus one more time each I believe.
            

comments powered by Disqus
↑ Back to top | Nirvana Tabs for Something In The Way. Lyrics for acoustic guitar and electric guitar. Tablatures and chords are parodies/interpretations of the original songs. You may use it for private study, scholarship, research or language learning purposes only