» » »

Skool Tabs (ver.1)

Artists:  A B C D E F G H I J K L M N O P Q R S T U V W X Y Z # 

Skool Tabs (ver.1)

Nirvana
Rating:
0/5 (0 votes)

Hard to play? Try these video lessons and learn fast.
                This is in my aspect the best song thats on BLEACH..

  Intro (dist)V1
|------------------------------------|
|------------------------------------|
|------------------------------------|
|------------------------------------|                                  
|------------------------------------|
|----0-0-0-3^-0-0-3^-0-0-0-0-3^--x5--|

Chorus (slit dist)

|-------------------------------------------|
|-------------------------------------------|
|-------------------------------------------|
|4--4--4--4----7---7---7-----x3-------------|
|4--4--4--4----7---7---7--------------------|
|1--1--1--1----4---4---4--------------------|

This is how it goes

V1
Chorus
V1
Chorus
V1
Chorus

If any things wrong or you get stuck e-mail me.Enjoy
            
Hard to play? Try these video lessons and learn fast. | Correct




comments powered by Disqus
↑ Back to top | Tablatures and chords are parodies/interpretations of the original songs. You may use it for private study, scholarship, research or language learning purposes only