» » »

Sifting Bass tabs (ver.3)

Artists:  A B C D E F G H I J K L M N O P Q R S T U V W X Y Z # 

Sifting Bass tabs (ver.3)

Nirvana
Rating:
0/5 (0 votes)

Hard to play? Try these video lessons and learn fast.
                verse(afraid...)
G|---------------------------------------
D|---------------------------------------
A|------3-------2\1-0--------------------
E|-0-00----0-00--------------------------

pre-chorus(your eyes...)
G|---------------------------------------
D|---------------------------------------
A|------5-------0------------------------
E|-0-00----0-00--------------------------

chorus(don,t have...)
G|---------------------------------------
D|---------------------------------------
A|-3-333---------------------------------
E|-------5^-5^-5^-3-(0)------------------

bridge
part1
G|---------------------------------------
D|---------------------------------------
A|---------------------------------------
E|-0-000---------------------------------

part2
G|---------------------------------------
D|---------------------------------------
A|---3-5-4-------------------------------
E|-0-------------------------------------

part3
G|---------------------------------------
D|---------------------------------------
A|---5-4-3-------------------------------
E|-0-------------------------------------

part4
G|---------------------------------------
D|---------------------------------------
A|---3-5-6-------------------------------
E|-0-------------------------------------

part5
G|---------------------------------------
D|---------------------------------------
A|---3-4-5-------------------------------
E|-0-------------------------------------

play bridge in this order
part1 x2
part2 x4
part1 x1
part3 x4
part1 x1
part3 x3
part1 x1
part4 x2
part1 x1
part3 x3
part1 x1
part5 x1
part2 x1
part3 x1
part1 x1
            
Hard to play? Try these video lessons and learn fast. | Correct




comments powered by Disqus
↑ Back to top | Tablatures and chords are parodies/interpretations of the original songs. You may use it for private study, scholarship, research or language learning purposes only