» » »

Rape Me Tabs (ver.7)

Artists:  A B C D E F G H I J K L M N O P Q R S T U V W X Y Z # 

Rape Me Tabs (ver.7)

Nirvana
Rating:
0/5 (0 votes)

Hard to play? Try these video lessons and learn fast.
                


 Clean Guitar/No Drums
 
 
 |-----------------|-----------------|-----------------|-----------------|
 |-----------------|-----------------|-----------------|-----------------|
 |-----------------|-----------------|-----------------|-----------------|
 |------7---7------|-X-X-X-X-10-10---|------2---2------|-X-X-X-X-5-5-----|
 |------7---7------|-X-X-X-X-10-10---|------2---2------|-X-X-X-X-5-5-----|
 |------5---5------|-8-8-8-8-8--8----|------0---0------|-3-3-3-3-3-3-----|
 
 
 |-----------------|-----------------|-----------------|-----------------|
 |-----------------|-----------------|-----------------|-----------------|
 |-----------------|-----------------|-----------------|-----------------|
 |------7---7------|-X-X-X-X-10-10---|------2---2------|-X-X-X-X-5-5-----|
 |------7---7------|-X-X-X-X-10-10---|------2---2------|-X-X-X-X-5-5-----|
 |------5---5------|-8-8-8-8-8--8----|------0---0------|-3-3-3-3-3-3-----|
 
 
 |-----------------|-----------------|-----------------|-----------------|
 |--------2--------|-----------------|-----------------|-----------------|
 |--------2--------|---------0-------|---------2-------|---------5-------|
 |-----------------|-------2---2-----|---------2-------|---------5-------|
 |-----0-----------|---0-3-----------|-----------------|------5-----5----|
 |-----------------|-----------------|------0----------|-0-3-----------0-|
 
       Rape Me...
 
 |-----------------|-----------------|-----------------|-----------------|
 |--------2--------|-----------------|-----------------|-----------------|
 |--------2--------|---------0-------|---------2-------|---------5-------|
 |-----------------|-------2---2-----|---------2-------|---------5-------|
 |-----0-----------|---0-3-----------|-----------------|------5-----5----|
 |-----------------|-----------------|------0----------|-0-3-----------0-|
 
       Rape Me My Friend...
 
      
 |-----------------|-----------------|-----------------|-----------------|
 |--------2--------|-----------------|-----------------|-----------------|
 |--------2--------|---------0-------|---------2-------|---------5-------|
 |-----------------|-------2---2-----|---------2-------|---------5-------|
 |-----0-----------|---0-3-----------|-----------------|------5-----5----|
 |-----------------|-----------------|------0----------|-0-3-----------0-|
 
       Rape Me...
 
 |-----------------|-----------------|-----------------|-----------------|
 |--------2--------|-----------------|-----------------|-----------------|
 |--------2--------|---------0-------|---------2-------|---------5-------|
 |-----------------|-------2---2-----|---------2-------|---------5-------|
 |-----0-----------|---0-3-----------|-----------------|------5-----5----|
 |-----------------|-----------------|------0----------|-0-3-----------0-|
 
       Rape Me Again...
 
 1st Chorus
 ----------
 
 Heavy Distorted Guitar w/Drums - Do 4 Times
 
 |-----------------|-----------------|-----------------|-----------------|
 |-----------------|-----------------|-----------------|-----------------|
 |-----------------|-----------------|-----------------|-----------------|
 |------7---7------|-X-X-X-X-10-10---|------2---2------|-X-X-X-X-5-5-----|
 |------7---7------|-X-X-X-X-10-10---|------2---2------|-X-X-X-X-5-5-----|
 |------5---5------|-8-8-8-8-8--8----|------0---0------|-3-3-3-3-3-3-----|
 
       I'm Not The Only One... Ahhh....
 
 2nd Verse
 ---------
 
 Clean Guitar w/Drums - Do 4 Times With Lyrics (Same Beat As In 1st Verse)
 
 |-----------------|-----------------|-----------------|-----------------|
 |-----------------|-----------------|-----------------|-----------------|
 |-----------------|-----------------|-----------------|-----------------|
 |------7---7------|-X-X-X-X-10-10---|------2---2------|-X-X-X-X-5-5-----|
 |------7---7------|-X-X-X-X-10-10---|------2---2------|-X-X-X-X-5-5-----|
 |------5---5------|-8-8-8-8-8--8----|------0---0------|-3-3-3-3-3-3-----|
 
 
 2nd Chorus
 ----------
 
 1 - Do 1st Chorus
 
 2 - Do This After 1st Chorus:
 
 Heavy Distorted Guitar w/Drums (Drums Change To Fit This Riff)
 
 |-----------------|-----------------|-----------------|-----------------|
 |-----------------|-----------------|-----------------|-----------------|
 |-----------------|-----------------|-----------------|-----------------|
 |---6-6-6-6-6-6---|--2-2-2----------|---6-6-6-6-6-6---|--2-2-2----------|
 |---4-4-4-4-4-4---|--0-0-0--3-2-1-0-|---4-4-4-4-4-4---|--0-0-0--3-2-1-0-|
 |-----------------|-----------------|-----------------|-----------------|
 
 
       My Favorite Inside Source...        I Kiss Your Open Sores...
 
 |-----------------|-----------------|-----------------|-----------------|
 |-----------------|-----------------|-----------------|-----------------|
 |-----------------|-----------------|-----------------|-----------------|
 |---6-6-6-6-6-6---|--2-2-2----------|---6-6-6-6-6-6---|--2-2-2----------|
 |---4-4-4-4-4-4---|--0-0-0--3-2-1-0-|---4-4-4-4-4-4---|--0-0-0--3-2-1-0-|
 |-----------------|-----------------|-----------------|-----------------|
 
       Appreciate Your Concern...          You'll Always Stink And Burn...
 
 |-----------------|-----------------|-----0-----------|-----------------|
 |-----------------|-----------------|-----0-----------|-----------------|
 |-----------------|-----------------|-----X-----------|-----------------|
 |-----------------|-----------------|-----2-----------|-----------------|
 |-3-3-3-3-3-3-3-3-|-5-5-5-5-5-5-5-5-|-----2-----------|-----------------|
 |-1-1-1-1-1-1-1-1-|-3-3-3-3-3-3-3-3-|-----0-----------|-----------------|
                                             
                                             (Open E Rings Out For An 8 Count)
 
 3rd Verse
 ---------
 
 Clean Guitar/ No Drums - Do 4 Times With Lyrics (Same Beat As In 1&2 Verses)
 
 |-----------------|-----------------|-----------------|-----------------|
 |-----------------|-----------------|-----------------|-----------------|
 |-----------------|-----------------|-----------------|-----------------|
 |------7---7------|-X-X-X-X-10-10---|------2---2------|-X-X-X-X-5-5-----|
 |------7---7------|-X-X-X-X-10-10---|------2---2------|-X-X-X-X-5-5-----|
 |------5---5------|-8-8-8-8-8--8----|------0---0------|-3-3-3-3-3-3-----|
 
 
 Final Chorus
 ------------
 
 Heavy Distorted Guitar w/Drums
 
 4 Times:
 --------
 |-----------------|-----------------|-----------------|-----------------|
 |-----------------|-----------------|-----------------|-----------------|
 |-----------------|-----------------|-----------------|-----------------|
 |------7---7------|-X-X-X-X-10-10---|------2---2------|-X-X-X-X-5-5-----|
 |------7---7------|-X-X-X-X-10-10---|------2---2------|-X-X-X-X-5-5-----|
 |------5---5------|-8-8-8-8-8--8----|------0---0------|-3-3-3-3-3-3-----|
 
       I'm Not The Only One... Ahhh....
       
 4 Times:
 --------
 |-----------------|-----------------|-----------------|-----------------|
 |-----------------|-----------------|-----------------|-----------------|
 |-----------------|-----------------|-----------------|-----------------|
 |------7---7------|-X-X-X-X-10-10---|------2---2------|-X-X-X-X-5-5-----|
 |------7---7------|-X-X-X-X-10-10---|------2---2------|-X-X-X-X-5-5-----|
 |------5---5------|-8-8-8-8-8--8----|------0---0------|-3-3-3-3-3-3-----|
         Rape Me!...                         Rape Me!...

or try

 ------------------------------------------------   
  ------------------------------------------------
  --2---2---X--X---5--5--5----0-------------------   
  --2---2---X--X---5--5--5----0-------------------
  --0---0---X--X---3--3--3----0-------------------   
  ----------------------------0-------------------

  ------------------------------------------------   
  ------------------------------------------------
  ------------------------------------------------   
  --2---2----5---5---5---5------------------------
  --2---2----5---5---5---5------------------------   
  --0---0----3---3---3---3------------------------
  
  Rape me,
  ------------------------------------------------   
  ------2----------------------------------5------
  ------2--------------0-------------------5------   
  --2---------------2------------2------5---------
  --0--------0---3--------3------2----3-----------   
  ----------------------------0-----0---------0---
  
  Rape me,       my friend   
  ------------------------------------------------   
  ------2----------------------------------5------
  ------2--------------0-------------------5------   
  --2---------------2------------2------5---------
  --0--------0---3--------3------2----3-----------   
  ----------------------------0-----0---------0---
  
  Rape me,
  ------------------------------------------------   
  ------2----------------------------------5------
  ------2--------------0-------------------5------   
  --2---------------2------------2------5---------
  --0--------0---3--------3------2----3-----------   
  ----------------------------0-----0---------0---

  Rape me        again,
  ------------------------------------------------   
  --------2-----------5----5----------------------
  --2-----2-----------5----5----------------------   
  --2-----2-------5---5----5----------------------
  --0---------0---3--------------0----------------   
  -------------------------------0----------------

               w/distortion
  ------------------------------------------------
  ------------------------------------------------
  ------------------------------------------------
  --2---2------5----5---5---5---5------0-----------
  --2---2------5----5---5---5---5-----------------
  --0----------3----3---3---3---3-----------------

  rhy.fig. 1 w/distortion
  ------------------------------------------------
  --2----2---X--X--X--X---------------------------
  --2----2---X--X--X--X---5----0------------------
  --2----2---X--X--X--X---5----0------------------
  --0-----------------X---3----0------------------
  ------------------------------------------------

  ------------------------------------------------
  ------------------------------------------------
  ------------------------------------------------
  --2----5---5---5---5---5------------------------
  --2----5---5---5---5---5------------------------
  --0----3---3---3---3---3------------------------

  w/rhy.fig. 1
  Iom not the only one  (I)____
  Iom not the only one  (I)____
  Iom not the only one  (I)____
  Iom not the only one         

  w/rhy.fig 1 but clean
  Hate me,
  Do it and do it again
  Waste me
  
  Rape me my friend 
  ------------------------------------------------
  ------------------------------------------------
  --2---2---X--X--X--X--5--5--0-------------------
  --2---2---X--X--X--X--5--5--0-------------------
  --0---0---X-----X-----3--3--0-------------------
  ------------------------------------------------

  w/distortion
  ------------------------------------------------
  ------------------------------------------------
  ------------------------------------------------
  --2---2------5----5---5---5---5-----------------
  --2---2------5----5---5---5---5-----------------
  --0----------3----3---3---3---3-----------------

  w/rhy.fig. 1
  Iom not the only one  (I)____
  Iom not the only one  (I)____
  Iom not the only one  (I)____
  Iom not the only one         

  rhy.fig. 2  w/distortion
  ------------------------------------------------
  ------------------------------------------------
  --6---6--6--6---6--6--6--6--6---2--2------------
  --6---6--6--6---6--6--6--6--6---2--2------------
  --4---4--4--4---4--4--4--4--4---0--0------------
  -------------------------------------0-3-2-1-0--
  
  w/rhy.fig 2
  My favorite inside source 
  Ioll kiss your open sores
  appreciate your concern 
  youoll alway stink and burn

  ------------------------------------------------
  ------------------------------------------------
  ------------------------------------------------
  ------------------------------------------------
  -3--3---3--3--3--3--3--3/5--5--5--5--5--5--5--5/
  -1--1---1--1--1--1--1--1/3--3--3--3--3--3--3--3/

  let ring--------------------------]

  ---------0--------------------------------------
  ---------0--------------------------------------
  ------------------------------------------------
  --2---------------------------------------------
  --2---------------------------------------------
  --0---------------------------------------------

  Rape me
  ------------------------------------------------
  --2---2-----------------------------------------
  --2---2---X-X-X---5---5-------------------------
  --2---2---X-X-X---5---5--0--2--2--5--5--5--5--0-
  --0---0---X---X---3---3--0--2--2--5--5--5--5--0-
  -------------------------0--0--0--3--3--3--3--0-
  
  Rape me            my friend
  ------------------------------------------------
  --2---2-----------------------------------------
  --2---2---X-X-X---5---5-------------------------
  --2---2---X-X-X---5---5--0--2--2--5--5--5--5--0-
  --0---0---X---X---3---3--0--2--2--5--5--5--5--0-
  -------------------------0--0--0--3--3--3--3--0-

  Rape me
  ------------------------------------------------
  --2---2-----------------------------------------
  --2---2---X-X-X---5---5-------------------------
  --2---2---X-X-X---5---5--0--2--2--5--5--5--5--0-
  --0---0---X---X---3---3--0--2--2--5--5--5--5--0-
  -------------------------0--0--0--3--3--3--3--0-

  Rape me         again           *  w/distortion
  ------------------------------------------------
  --2---2-----------------------------------------
  --2---2---X-X-X---5---5-------------------------
  --2---2---X-X-X---5---5--0--2--2--5--5--5--5--0-
  --0---0---X---X---3---3--0--2--2--5--5--5--5--0-
  -------------------------0--0--0--3--3--3--3--0-

  *Note.-here a second guitar does a slide from the 
  open sixth chord otill fret #21 of the sixth chord.

  w/rhy.fig. 1
  Iom not the only one  (I)____
  Iom not the only one  (I)____
  Iom not the only one  (I)____
  Iom not the only one         

  w/rhy.fig 1
  Rape me Rape me Rape me...etc

  Rape me   (w/dist.)
  ------------------------------------------------
  ------------------------------------------------
  ------------------------------------------------
  --2---------------------------------------------
  --2---------------------------------------------
  --0---------------------------------------------

this is my first tab. i started playing guitar 2 weeks ago so it'll probably suck 
but leave you comments and well umm you kno good and bad stuff...lates(slipknot and 
nirvana rock)
            
Hard to play? Try these video lessons and learn fast. | Correct




comments powered by Disqus
↑ Back to top | Tablatures and chords are parodies/interpretations of the original songs. You may use it for private study, scholarship, research or language learning purposes only