» » »

Nirvana, Rape Me Tabs (ver.2)

Artists:  A B C D E F G H I J K L M N O P Q R S T U V W X Y Z # 

Rape Me Tabs (ver.2)

Nirvana Tabs
 Rating:
4/5 (4 votes)
Rape Me lessons Tabs too difficult? Try these video lessons and learn fast
1
                standard tuning(eBGDAE)
order and when to turn off and on distortion at bottom

(if you want, you can change those chords to power chords
 yet i think these chords give a fuller sound the power chords)

intro/2nd verse/3rdverse/chorus/outro 
(muting only done once(beginning of song)
           Am     C            Em        G     
e----------0-0----000-0-0------0-0-------333-3-3-
B----------1-1----111-1-1------0-0-------333-3-3-
G----------2-2----000-0-0------0-0-------000-0-0-
D-x-x-x-x--2-2----222-2-2------2-2-------000-0-0-
A-x-x-x-x--0-0----333-3-3------2-2-------222-2-2-
E-x-x-x-x--x-x----000-0-0------0-0-------333-3-3-

1st verse(pick down, up, down)or(pick low, high, low)
   Am     C      Em     G           
e--0-0-0--0-0-0--0-0-0--3-3-3--
B--1-1-1--1-1-1--0-0-0--3-3-3--
G--2-2-2--0-0-0--0-0-0--0-0-0--
D--2-2-2--2-2-2--2-2-2--0-0-0--
A--0-0-0--3-3-3--2-2-2--2-2-2--
E--x-x-x--0-0-0--0-0-0--3-3-3--

bridge1
e---------------------------------------------------
B---------------------------------------------------
G-6-------------------------------------------------
D-6x8--7----5----4----3----6----2----5----4----3----
A-4----7x4--5x1--4x1--3x1--6x8--2x4--5x1--4x1--3x1--
E------5----3----2----1----4----0----3----2----1----

bridge2
  F   G   E(keep picking it but let E chord ring)
e-1---3-----0---0---0---0-
B-1---3-----0---0---0---0-
G-2---0-----1---1---1---1-
D-3x8-0x8-----------------
A-3---2---2---2---2---2---
E-1---3---0---0---0---0---

Order:
Intro     x2(no distortion)
1st verse x4(no distortion)
chorus    x4(distortion)
2nd verse x4(no distortion)
chorus    x4(distortion)
bridge1   x2(distortion)
bridge2   x1(distortion)
3rdverse  x4(no distortion)
outro     x8(distortion)
hold Am(01220x)(eBGDAE) for last note(distortion)
            
Submit corrections

comments powered by Disqus
↑ Back to top | Nirvana Tabs for Rape Me. Lyrics for acoustic guitar and electric guitar. 1 Tablatures and chords are parodies/interpretations of the original songs. You may use it for private study, scholarship, research or language learning purposes only