» » »

Nirvana, Radio Friendly Unit Shifter Tabs (ver.3)

Artists:  A B C D E F G H I J K L M N O P Q R S T U V W X Y Z # 

Radio Friendly Unit Shifter Tabs (ver.3)

Nirvana Tabs
Rating:
0/5 (0 votes)
Radio Friendly Unit Shifter lessons Tabs too difficult? Try these video lessons and learn fast
                Intro:
--------------12--------------12--------------12------0------------
10-----11-------------11---------------11-------------0------------
w/Poly chorus vibrato pedal					   (poly chorus off)



Main Riff:
-----------5--5----------4--4--------------------------------------
----7--7---5--5---5--5---4--4---4--4-------------------------------
----7--7---3--3---5--5---2--2---4--4-------------------------------
----5--5----------3--3----------2--2----0--1--0--------------------

Bridge:   	
5-5-5-5-5-5-5-5-/9-9-9-9-9-9-9-0--2-2-2-2-2-2-2-0------------------
5-5-5-5-5-5-5-5-/9-9-9-9-9-9-9-0--2-2-2-2-2-2-2-0--5-5-5-5-5-5-5-0- 3½ times
3-3-3-3-3-3-3-3-/7-7-7-7-7-7-7-0--0-0-0-0-0-0-0-0--5-5-5-5-5-5-5-0-
---------------------------------------------------3-3-3-3-3-3-3-0-
            
Submit corrections

comments powered by Disqus
↑ Back to top | Nirvana Tabs for Radio Friendly Unit Shifter. Lyrics for acoustic guitar and electric guitar. Tablatures and chords are parodies/interpretations of the original songs. You may use it for private study, scholarship, research or language learning purposes only