» » »

Nirvana, Polly Unplugged Bass tabs (ver.2)

Artists:  A B C D E F G H I J K L M N O P Q R S T U V W X Y Z # 

Polly Unplugged Bass tabs (ver.2)

Nirvana Tabs
 Rating:
4/5 (4 votes)
Polly Unplugged lessons Tabs too difficult? Try these video lessons and learn fast
1
                "(2)
(0:00- 0:24) VERSE

G---------------------------------------------------------------------------
D---------------------------------------------------------------------------
A-------------------5-5-3----3-3-----------------------------------------
E-----0-0--3-3--------------------------5---------------------------------


(0:24- 0:57) CHORUS

G----------------------------------------------------------------------------
D----------------------------------------------------------------------------
A-----5---3------------------------------------------------------------------
E---------------3----6---  6--6---0------------------------------------------


(0:57- 1:23) VERSE

G----------------------------------------------------------------------------
D----------------------------------------------------------------------------
A-------------------5-5-5-3--------3-3---------------------------------------
E----0--0--3-3---------------------------5----------------------------------

(1:23- 2:21) CHORUS

G-----------------------------------------------------------------------------
D-----------------------------------------------------------------------------
A------5---3------------------------------------------------------------------
E---------------3----6-----6---6---0------------------------------------------

(2:21- 2:55) VERSE

G-----------------------------------------------------------------------------
D-----------------------------------------------------------------------------
A---------------------5-5-5--3-----------3 3----------------------------------
E----0-0 3--3--------------------------------5------------------------------

THIS IS THE WHOLE SONG I TRIED TO PERFECT IT AS MUCH AS POSSIBLE

ENJOY!!!!!
"            
Submit corrections

comments powered by Disqus
↑ Back to top | Nirvana Bass for Polly Unplugged. Lyrics for acoustic guitar and electric guitar. 1 Tablatures and chords are parodies/interpretations of the original songs. You may use it for private study, scholarship, research or language learning purposes only