» » »

Polly Unplugged Bass tabs (ver.1)

Artists:  A B C D E F G H I J K L M N O P Q R S T U V W X Y Z # 

Polly Unplugged Bass tabs (ver.1)

Nirvana
Rating:
0/5 (0 votes)

Hard to play? Try these video lessons and learn fast.
                "(1)
Riff 1

G------------------------------|
D------------------------------|
A----------------5-5---3-3-3-2-|
E-0----0-3-3---3---------------|

Riff 2

G---------------------------------|
D---------------------------------|
A-5---5-5-3-3-3-2-----------------|
E-----------------3---3-3-6-6-6-5-|

In Order:

Riff 1 x6
Riff 2 x8
Riff 1 x6
Riff 2 x8
Riff 1 x6
Riff 2 x8
"            
Hard to play? Try these video lessons and learn fast. | Correct




comments powered by Disqus
↑ Back to top | Tablatures and chords are parodies/interpretations of the original songs. You may use it for private study, scholarship, research or language learning purposes only