>
 >
Polly All Versions

Polly All Versions Guitar Tabs

Nirvana - Polly All Versions chords, tabs, tablatures, lyrics

Guitar lessons | Add/correct | Request | Top 50 tabs Artists:  A B C D E F G H I J K L M N O P Q R S T U V W X Y Z 0-9

Polly All Versions Guitar Tabs – Nirvana

CD, Sheet music, Poster

Do you like Polly All Versions? Share with your friends now
Tabs
Nirvana
Polly - All Versions


Nevermind Version:

                    Polly wants a cracker...
	    E     G           D           C
	e|----------------------------------------------
	A|----------------------------------------------
	D|--------------------7--7--7-----5---5--5--5---
	G|--2-----5--5--5-----7--7--7-----5---5--5--5---
	B|--2-----5--5--5-----5--5--5-----3---3--3--3---
	E|--0-----3--3--3-------------------------------
 
 
	Chorus:
 
	         It isn't me,           We have some seed...
	    D       C             G       A#
	 |----------------------------------------------
	 |----------------------------------------------
	 |--7--7----5--5--5--5------------3--3--3--3----
	 |--7--7----5--5--5--5----5--5----3--3--3--3----
	 |--5--5----3--3--3--3----5--5----1--1--1--1----
	 |------------------------3--3------------------



  
  Verse:                          
    
    Em     G        D        C             
e|--0----3--3----2--2----0--0--0----         
A|--0----0--0----3--3----1--1--1----         
D|--0----0--0----2--2----0--0--0---- 
G|--2----0--0----0--0----2--2--2----         
B|--2----2--2----0--0----3--3--3----         
E|--0----3--3----0--0----0--0--0----         

 
  Chorus:
    
     D         C         G        A#
e|--2--2----0--0--0----3--3----1--1--1----
A|--3--3----1--1--1----0--0----3--3--3----
D|--2--2----0--0--0----0--0----3--3--3----
G|--0--0----2--2--2----0--0----3--3--3----
B|--0--0----3--3--3----2--2----1--1--1----
E|--0--0----0--0--0----3--3----1--1--1----



Unplugged in New York Version:

e|-----------------------------------------
A|-----------------------------------------
D|--------------------7---------5-----5----
G|----2------5--------7--7------5--5--5----
B|----2---5--5-----5--5--5---3--3--3--3----
E|--0-0-0-3-----3--------------------------
 
 
Chorus:
 
e|----------------------------------------------
A|----------------------------------------------
D|--7--7----5--------5--------------------------
G|--7--7----5-----5--5----5--5----8--------8----
B|--5-------3--3----------5--5----8-----8--8----
E|------------------------3-------6--6----------





Comments


Popular Nirvana tabs & chords
Pen Cap Chew Bass Tabs
In Bloom 1 Chords
Pennyroyal Tea 1 Chords
Where Did You Sleep Chords
Heart Shaped Box Drum Tabs
Aneurysm 5 Tabs
Big Long Now 2 Tabs
Mexican Seafood 1 Tabs
Serve The Servants 1 Tabs
My Girl Ukulele


Song lyrics



↑ Back to top | Tablatures and chords are parodies/interpretations of the original songs. You may use it for private study, scholarship, research or language learning purposes only
© 2014 AZChords.com Contact us | Privacy policy | DMCA | Add/correct tabs | Request tabs | Top 50 tabs