» » »

Nirvana, Polly Tabs (ver.3)

Artists:  A B C D E F G H I J K L M N O P Q R S T U V W X Y Z # 

Polly Tabs (ver.3)

Nirvana Tabs
 Rating:
4/5 (4 votes)
Polly lessons Tabs too difficult? Try these video lessons and learn fast
                -|-------------------------------------------|--------------------------------
-|-------------------------------------------|--------------------------------
-|----------------x--0--7-7-x--5----5-5-5-0--|--------------------------------
-|-2--x--0--5--5--x--0--7-7-x--5----5-5-5-0--|--------------------------------
-|-2--x--0--5--5--x--0--5-5-x--3----3-3-3-0--|--------------------------------
-|-0--x--0--3--3-----------------------------|--------------------------------
                                                                              
Verse  above 
-|----------------------------------------|-----------------------------------
-|----------------------------------------|-----------------------------------
-|7-7-7--5--5-5-5-----------3----3-3-3----|-----------------------------------
-|7-7-7--5--5-5-5---5-5-5---3----3-3-3----|-----------------------------------
-|5-5-5--3--3-3-3---5-5-5---1----1-1-1----|-----------------------------------
-|------------------3-3-3-----------------|-----------------------------------
                                                                              
Chorus above
-|--------------------------------------------|-------------------------------
-|--------------------------------------------|-------------------------------
-|--------------------------------------------|-------------------------------
-|-2------------------------------------------|-------------------------------
-|-2---------------------------5-5-0--3--3-3-3|-------------------------------
-|-0-------0---0-0----3-3-x-0-----------------|-------------------------------
  interlude above (polly says . . . )
            
Submit corrections

comments powered by Disqus
↑ Back to top | Nirvana Tabs for Polly. Lyrics for acoustic guitar and electric guitar. Tablatures and chords are parodies/interpretations of the original songs. You may use it for private study, scholarship, research or language learning purposes only