» » »

Nirvana, Pen Cap Chew Tabs (ver.4)

Artists:  A B C D E F G H I J K L M N O P Q R S T U V W X Y Z # 

Pen Cap Chew Tabs (ver.4)

Nirvana Tabs
 Rating:
4/5 (4 votes)
Pen Cap Chew lessons Tabs too difficult? Try these video lessons and learn fast
                PEN CAP CHEW

INTRO-part 1
||---------------||
||---------------||
||---------------||
||---------------||
||-2-2-2-2-------||
||-0-0-0-0-3rvsb-||
(rvsb=let note ring and use a very slight bend)

INTRO-part 2
||----------------||
||----------------||
||----------------||
||----------------||
||-2-2-2-2----/4b-||
||-0-0-0-0-3/-----||
(/=slide up)
(b=bend note)

INTRO-part 3
||---------------------||
||---------------------||
||---------------------||
||---------------------||
||-2-2-2-2---5sb--3b-0-||
||-0-0-0-0-------------||
(sb=slight bend)

VERSE
||------||
||------------||
||------------||
||-2-2-2-2-5r-||
||-2-2-2-2-5r-||
||-0-0-0-0-3r-||

CHORUS-part 1
||------------------||
||------------------||
||--4-4-2-2-----2-2-||
||--4-4-2-2-4-4-2-2-||
||--2-2-0-0-4-4-0-0-||
||-----------2-2----||

||-------------------------||
||-------------------------||
||----------7-7-7/10101010-||
||-2-2-5-2-7-7-7/10101010--||
||-2-2-5-2-5-5-5/-8-8 -8-8-||
||-0-0-3-0-----------------||
(/=slide up)

CHORUS-part 2
||-------------------------||
||-------------------------||
||-------7-7-7-7/10101010--||
||-9-9-x-7-7-7-7/10101010--||
||-9-9-x-5-5-5-5/-8-8 -8-8-||
||-7-7-x-------------------||

Intro 1-3 times
Intro 2-1 time
Intro 1-1 time
Intro 3-1 time
intro 1 faded into verse-26 times
chorus part 1-6 times
chorus part 2-4 times
verse fades to intro 1-17 times to fade out completely
            
Submit corrections

comments powered by Disqus
↑ Back to top | Nirvana Tabs for Pen Cap Chew. Lyrics for acoustic guitar and electric guitar. Tablatures and chords are parodies/interpretations of the original songs. You may use it for private study, scholarship, research or language learning purposes only