» » »

Pateau Tabs (ver.1)

Artists:  A B C D E F G H I J K L M N O P Q R S T U V W X Y Z # 

Pateau Tabs (ver.1)

Nirvana
Rating:
0/5 (0 votes)

Hard to play? Try these video lessons and learn fast.
                Intro:
|--3-------6-------3-------6--------3-------6-------1---------------
|-------------------------------------------------------------------
|-------------------------------------------------------------------
|-------------------------------------------------------------------
|-------------------------------------------------------------------
|--3-------6-------3-------6-------3-------6-------1----------------


|--3-------6-------3-------6-------3-------6-------1----------------
|-------------------------------------------------------------------
|-------------------------------------------------------------------
|-------------------------------------------------------------------
|-------------------------------------------------------------------
|--3-------6-------3-------6-------3-------6-------1----------------


|--3-------6-------3-------6-------3-------6-------1----------------
|-------------------------------------------------------------------
|-------------------------------------------------------------------
|-------------------------------------------------------------------
|-------------------------------------------------------------------
|--3-------6-------3-------6-------3-------6-------1----------------
sorry everyone im workin on the rest rite now but so its a 100 percant rite
            
Hard to play? Try these video lessons and learn fast. | Correct




comments powered by Disqus
↑ Back to top | Tablatures and chords are parodies/interpretations of the original songs. You may use it for private study, scholarship, research or language learning purposes only