>
 >
Old Age 4

Old Age 4 Guitar Tabs

Nirvana - Old Age 4 chords, tabs, tablatures, lyrics

Guitar lessons | Add/correct | Request | Top 50 tabs Artists:  A B C D E F G H I J K L M N O P Q R S T U V W X Y Z 0-9

Old Age 4 Guitar Tabs – Nirvana

CD, Sheet music, Poster

Do you like Old Age 4? Share with your friends now
ChordsChords v2TabsTabs v2Tabs v3Tabs v4Ukulele
                                Nirvana
                       Sliver:Best of The Box Album
                 Old Age (Kurt Cobains Acoustic Version)
 
~~= Let Notes Ring
 Tuning=Whole Step Down...DGCFAD

 Intro/Verses
 E-----------------]
 B-----------------]
 G-5-5-5-5---------]   x4 For Each Verse. Adjust Your strum pattern to what
 D-5-3-3-3-7-7-7-7-]   He plays in the song to make it sound like the song.
 A-3-3-3-3-7-7-7-7-]   
 E---------5-5-5-5-]
 
 Picking Section Between Melodies
 E----------------------------------------------------]
 B--------------------------------------------5-------]
 G-------0-0-0~~------7-4-4~~--7-4~~--7---9~~--4------]
 D---2--7---------7--7--------7------7----------5-----]
 A--2--7---------7--5--------5------5------------5-0--]
 E-0--5---------5-----------------------0------------0]
 
 Strumming into next Melody
 E------------------------------]
 B------------------------------]
 G-9-9-9-9--5-5-5---------------]
 D-9-9-9-9--5-5-5---5--7-7-7----]
 A-7-7-7-7--3-3-3-0-5--7-7-7-0-2]
 E-0-0-0-0-0--------3--5-5-5---0]
 
 Second melody
 E-------------------------]
 B-------------------------]
 G-----------5-5-5-5-------] xHowever many verses he sings with this tab.
 D-----------5-5-5-5-7-7-7-]
 A-2-2-2-2-2-3-3-5-5-7-7-7-]
 E-0-0-0-0-0---------5-7-7-]
 
 Old Age- Verses and Pre Chorus                           
 E--------------------]   E------------------------------------------------]
 B--------------------]X2 B------------------------------------------------]
 G-----------5-5-5-5-5]   G---------------------5-5-5-5-5-5-5-5-5-5-5-5-5-5]
 D-----------5-5-5-5-5]   D-5-5-5-5-5-2-2-2-2-2-5-5-5-5-5-5-5-5-5-5-5-5-5-5]
 A-2-2-2-2-2-3-3-3-3-3]   A-5-5-5-5-5-0-0-0-0-0-3-3-3-3-3-3-3-3-3-3-3-3-3-3]
 E-0-0-0-0-0----------]   E-3-3-3-3-3--------------------------------------]
 
 Chorus                       Bridge                         
 E--------------------------] E--------------------------------------------]
 B--------------------------] B--------------------------------------------]
 G-----------2-2-2-2-2-2-2-2] G-4-4-4-4-4-4-4-4-4-4-4-4-5-5-5-5-5----------]
 D-----------0-0-0-0-0-0-0-0] D-4-4-4-4-4-4-4-4-4-4-4-4-5-5-5-5-5-5-5-5-5-5]
 A-2-2-2-2-2----------------] A-2-2-2-2-2-2-2-2-2-2-2-2-3-3-3-3-3-5-5-5-5-5]
 E-0-0-0-0-0----------------] E-----------------------------------3-3-3-3-3]

Thanks guys...rate and comment. Enjoy!





Comments


Popular Nirvana tabs & chords
Lithium 5 Bass Tabs
Mollys Lips 2 Bass Tabs
Heart Shaped Box 1 Chords
Lounge Act 1 Drum Tabs
All Apologies (Intro) Tabs
Been A Son 2 Tabs
Floyd The Barber Tabs
Heart Shaped Box 5 Tabs
Oh, The Guilt 1 Tabs
Paper Cuts 1 Tabs


Song lyrics



↑ Back to top | Tablatures and chords are parodies/interpretations of the original songs. You may use it for private study, scholarship, research or language learning purposes only
© 2014 AZChords.com Contact us | Privacy policy | DMCA | Add/correct tabs | Request tabs | Top 50 tabs