» » »

Nirvana, Oh Me Tabs (ver.1)

Artists:  A B C D E F G H I J K L M N O P Q R S T U V W X Y Z # 

Oh Me Tabs (ver.1)

Nirvana Tabs
 Rating:
4/5 (4 votes)
Oh Me lessons Tabs too difficult? Try these video lessons and learn fast
                (Unplugged)
written by the meat puppets performed by nirvana and the meatpuppets




this is my first time writing  out a tab if there are any 
mistakes its my enexperience



All the chords are %100 correct just figure out the strumming 
 listen to the song...........





E -------------------0------------------------0---------------------0/0/0
B -------------------0------------------------3---------------------3/1/3
G -------------------1------------------------0---------------------0/0/0
D -------------------2------------------------4---------------------4/2/4	
A -------------------2---------7-------5-5----5----------7-5--5-----5/3/5
E ---0-4-5/7-----0-----0-4-5/7-------------------0-4-5/7-----------------


E--------------0------------------------------------------------------------
B -------------0------------------------------------------------------------
G -------------1------------------------------------------------------------
D -------------2-----------------------------------------------------------
A -------------2------------------------------------------------------------
E  -0---0-------------------------------------------------------------------
 REPEAT UNTIL


E --------------------------------------------------------------------------
B -------------------------------------------------------------------------
G ---------------------------5-----7-----9---------------------------------
D ---------------------------5-----7-----9---------------------------------
A ----------------------7----3-----5-----7---------------------------------
E -------0---4--5/7-------------------------------------------------------
                                        FORMULATE INFINITY
THEN

E ---------------------------------------------------------
B -------------------------------------------------------
G --------12----------9----------------------------------
D --------12----------9-----------------------------------
A --------10----------7------------------------------------
E ----------------------------------------------------------

                   I CANT SEE

E-----------------------------------3/2---------2-3-5------------
B---------------------------3-3h5---------5-5-------------------
G--------------------2-2h4-----------------------------------
D-------------2-2h4------------------------------------------
A------0-2-------------------------------------------------
E--4-------------------------------------------------------


E----5-3-2--------------------------------------------------
B-----------5-3---------------3-3h5------------------------------
G-----------------4p2--2-2h4------------------------------------
D--------------------------------------------------------
A--------------------------------------------------------
E--------------------------------------------------------


please rate this
            
Submit corrections

comments powered by Disqus
↑ Back to top | Nirvana Tabs for Oh Me. Lyrics for acoustic guitar and electric guitar. Tablatures and chords are parodies/interpretations of the original songs. You may use it for private study, scholarship, research or language learning purposes only