>
 >
Oh Me Live

Oh Me Live Guitar Tabs

Nirvana - Oh Me Live chords, tabs, tablatures, lyrics

Guitar lessons | Add/correct | Request | Top 50 tabs Artists:  A B C D E F G H I J K L M N O P Q R S T U V W X Y Z 0-9

Oh Me Live Guitar Tabs – Nirvana

CD, Sheet music, Poster

Do you like Oh Me Live? Share with your friends now
Tabs
Nirvana
Oh, Me (With The Meat Puppets)
MTV Unplugged
(Half Step Down)


e|-------------------------------------0------------------------------------|
B|-------------------------------------0------------------------------------|
G|-------------------------------------x------------------------------------|
D|-------------------------------------2------------------------------------|
A|-------------------------7-----------2------------------------------------|
E|-----------4--5--5s7----------------0------------------------------------|

e|--------------------------------------0-----------------------------------|
B|--------------------------------------3-----------------------------------|
G|--------------------------------------0-----------------------------------|
D|--------------------------------------4-----------------------------------|
A|-------------------------7------------5-----------------------------------|
E|-----------4--5---5s7-----------------5-----------------------------------|

e|--------------------------------------0----------0------------0-----------|
B|--------------------------------------3----------1------------0-----------|
G|--------------------------------------0----------0------------x-----------|
D|--------------------------------------4----------2------------2-----------|
A|-------------------------7------------5----------3------------2-----------|
E|-----------4--5---5s7-----------------5----------3------------0-----------|

e|---------------------------------3-------0-------3-------0----------------|
B|---------------------------------3-------0-------3-------0----------------|
G|-------5-------7-------9---------0-------x-------0-------x----------------|
D|-------5-------7-------9---------0-------2-------0-------2----------------|
A|-------3-------5-------7---------2-------2-------2-------2----------------|
E|---------------------------------3-------0-------3-------0----------------|

(START SOLO)
e|--------------------------------------------------------------------------|
B|--------------------------------------------------------------------------|
G|-----------------------------------5-----7-----9--------------------------|
D|-----------------------------------5-----7-----9--------------------------|
A|---------------------------7-------3-----5-----7--------------------------|
E|-----------4--5---5s7-----------------------------------------------------|

e|--------------------------------------------------------------------------|
B|--------------------------------------------------------------------------|
G|-----------------------------------------------77s9----------------------|
D|--------------------------------------7--7s9------------------------------|
A|----------------------------7---7s9---------------------------------------|
E|----------4--5----5s7-----------------------------------------------------|

e|--------------------------------------------------------------------------|
B|--------8----7---7----------------------------77---8------10-------------|
G|------------------------9---7---9---------9-------------------------------|
D|--------------------------------------------------------------------------|
A|--------------------------------------------------------------------------|
E|--------------------------------------------------------------------------|


e|--------------------------------------------------------------------------|
B|-----8---7-77h8p7--------------------------------------------------------|
G|-----------------------9----7-----------7------7s9------------------------|
D|----------------------------------9---------------------------------------|
A|--------------------------------------------------------------------------|
E|--------------------------------------------------------------------------|
(END SOLO)

e|-------------------------------------0------------------------------------|
B|-------------------------------------0------------------------------------|
G|-------------------------------------x------------------------------------|
D|-------------------------------------2------------------------------------|
A|-------------------------7-----------2------------------------------------|
E|-----------4--5--5s7----------------0------------------------------------|

e|--------------------------------------0-----------------------------------|
B|--------------------------------------3-----------------------------------|
G|--------------------------------------0-----------------------------------|
D|--------------------------------------4-----------------------------------|
A|-------------------------7------------5-----------------------------------|
E|-----------4--5---5s7-----------------5-----------------------------------|

e|--------------------------------------0----------0------------0-----------|
B|--------------------------------------3----------1------------0-----------|
G|--------------------------------------0----------0------------x-----------|
D|--------------------------------------4----------2------------2-----------|
A|-------------------------7------------5----------3------------2-----------|
E|-----------4--5---5s7-----------------5----------3------------0-----------|

e|---------------------------------3-------0-------3-------0----------------|
B|---------------------------------3-------0-------3-------0----------------|
G|-------5-------7-------9---------0-------x-------0-------x----------------|
D|-------5-------7-------9---------0-------2-------0-------2----------------|
A|-------3-------5-------7---------2-------2-------2-------2----------------|
E|---------------------------------3-------0-------3-------0----------------|

e|--------------------------------------------------------------------------|
B|--------------------------------------------------------------------------|
G|-----------------------------------5-----7-----9--------------------------|
D|-----------------------------------5-----7-----9--------------------------|
A|---------------------------7-------3-----5-----7--------------------------|
E|-----------4--5---5s7-----------------------------------------------------|


e|---------------------7----------3-----------5------------7-----------7----|
B|---------------------7-------------3-------------5------------7------7----|
G|----------5----7-----9-----------------------------------------------9----|
D|----------5----7-----9-----------------------------------------------9----|
A|----------3----5-----7-----------------------------------------------7----|
E|--------------------------------------------------------------------------|





Comments


Popular Nirvana tabs & chords
Aero Zeppelin 1 Bass Tabs
New Wave Polly Bass Tabs
Lake Of Fire Chords
Old Age Chords
Plateau Chords
Do Re Mi 1 Tabs
Drain You Tabs
Floyd The Barber 1 Tabs
Plateau Tabs
Smells Like Teen Spirit Correct Tabs


Song lyrics



↑ Back to top | Tablatures and chords are parodies/interpretations of the original songs. You may use it for private study, scholarship, research or language learning purposes only
© 2014 AZChords.com Contact us | Privacy policy | DMCA | Add/correct tabs | Request tabs | Top 50 tabs