>
 >
Oh Me 4

Oh Me 4 Guitar Tabs

Nirvana - Oh Me 4 chords, tabs, tablatures, lyrics

Guitar lessons | Add/correct | Request | Top 50 tabs Artists:  A B C D E F G H I J K L M N O P Q R S T U V W X Y Z 0-9

Oh Me 4 Guitar Tabs – Nirvana

CD, Sheet music, Poster

Do you like Oh Me 4? Share with your friends now
Bass TabsChordsTabsTabs v2Tabs v3Tabs v4Ukulele
Nirvana & (Meat Puppets) Unplugged In New York
Oh Me

Played 1/2 Step Down

Verse
e-------------0----------------0----------------0-----0-0-----0---|
B-------------0----------------3----------------3-----1S3-----0---|
G-------------1----------------0----------------0-----0-0-----1---|
D-------------2----------------4----------------4-----2S4-----2---|
A---------7---2----------7-5-5-5----------7-5-5-5-3-3-3S5-----2---|
E-4H5-5S7---0-0--4H5-5S7----------4H5-5S7-----------------0-0-0---|

Bridge 1
e-------------0----------------0-----0-----0-----0---0---|
B-------------0----------------3-----3-----3-----1-S-3---|
G-------------1----------------0-----0-----0-----0---0---|
D-------------2----------------4-----4-----4-----2-S-4---|
A---------7---2----------7-5-5-5-5-5-5-5-5-5-3-3-3-S-5---|
E-4H5-5S7---0-0--4H5-5S7---------------------------------|

Chorus
e------------------------------------X3-|-----------------3---5---7---|
B---------------------------------------|-----------------3---5---7---|
G-9-9-9-9-9-9-9--12-12-12-12-12-12-12---|-9-9-9-9-9-9-9---5---7---9---|
D-9-9-9-9-9-9-9--12-12-12-12-12-12-12---|-9-9-9-9-9-9-9---5---7---9---|
A-7-7-7-7-7-7-7--10-10-10-10-10-10-10---|-7-7-7-7-7-7-7---3---5---7---|
E---------------------------------------|-----------------------------|

Solo
e----------------------------------------------------------------------------|
B---------------------------8P7-7-------7-8-10-8-7-8-7---7-------------------|
G---------------------7-7H9-------9-7-9----------------9---9-7-9-7-----7-7H9-|
D---------------7-7H9----------------------------------------------7H9-------|
A---------7-7H9--------------------------------------------------------------|
E-4H5-5S7--------------------------------------------------------------------|

Outro
e|-3---5---7|---3---5---7-7---------3---5---7-7---------3---5---7---|
B|-3---5---7|---3---5---7---7---------3---5-7---7---------3---5-7---|
G|-5---7---9|---5---7---9-----9-------------9-----9-------------9---|
D|-5---7---9|---5---7---9-------9-----------9-------9-----------9---|
A|-3---5---7|---3---5---7-------------------7-------------------7---|
E|----------|-------------------------------------------------------|


Order
Verse X3
Bridge
Chorus
Solo
Verse X3
Chorus
Outro

Check Out My Cover
i used these tabs





Comments


Popular Nirvana tabs & chords
Even In His Youth Bass Tabs
Hands Bass Tabs
Cocaine Girl Chords
Polly 1 Chords
Floyd The Barber 1 Tabs
I Hate Myself And Want To Die Tabs
In Bloom Tabs
Run, Rabbit, Run Tabs
Scoff 2 Tabs
Big Long Now Ukulele


Song lyrics



↑ Back to top | Tablatures and chords are parodies/interpretations of the original songs. You may use it for private study, scholarship, research or language learning purposes only
© 2014 AZChords.com Contact us | Privacy policy | DMCA | Add/correct tabs | Request tabs | Top 50 tabs