» » »

(New Wave) Polly Tabs (ver.1)

Artists:  A B C D E F G H I J K L M N O P Q R S T U V W X Y Z # 

(New Wave) Polly Tabs (ver.1)

Nirvana
Rating:
0/5 (0 votes)

Hard to play? Try these video lessons and learn fast.
                Normal tuning!
This is correct, no doubt's  :)

-|----------------------|-----------------------|------0--------------|-------
-|---------------0------|----3--------5---5--0-*|*-----0--------0-----|-------
-|---------------0------|----2--------5---5--0--|---------------0-----|-------
-|---------------0------|-0--------5------5-----|---------------0-----|-------
-|-2-------------x------|-0--------3------3----*|*--------------x-----|-------
-|-0----x--0--3--3--x--x|-------x---------------|--0------x--3--3--x-x|-------
                                                                              

---------------------||-------------------------------------------------------
----3--------5---5--0||-------------------------------------------------------
----2--------5---5--0||-------------------------------------------------------
-0--------5------5---||-------------------------------------------------------
-0--------3------3---||-------------------------------------------------------
-------x-------------||-------------------------------------------------------
 Intro                                                                        

-|-----|-3---|-0---|-----|----||----------------------------------------------
-|-----|-3---|-3---|-1---|----||----------------------------------------------
-|-----|-0---|-2---|-0---|----||----------------------------------------------
-|-2---|-0---|-0---|-2---|-x3-||----------------------------------------------
-|-2---|-0---|-----|-3---|----||----------------------------------------------
-|-0---|-3---|-----|-----|----||----------------------------------------------
 Verse:  you should be able to figure out how many times each cord is played! 

-|-----------------------|----------------------|---||------------------------
-|-3---x---5-----5--5--0-|-0---x---3-----3--3--0|---||------------------------
-|-2---x---5-----5--5--0-|-0---x---3-----3--3--0|---||------------------------
-|-0---x---5-----5--5----|-0---x---3-----3--3---|-x8||------------------------
-|-0---x---3-----3--3----|-x---x---1-----1--1---|---||------------------------
-|-----------------------|-3---x----------------|---||------------------------
 Chorus                                                                       

-|-----|-3---|-0---|-----|-----|-3---|-0---|-----||---------------------------
-|-----|-0---|-3---|-1---|-----|-0---|-3---|-1--*||---------------------------
-|-----|-0---|-2---|-0---|-----|-0---|-2---|-0---||---------------------------
-|-2---|-0---|-0---|-2---|-2---|-0---|-0---|-2---||---------------------------
-|-2---|-0---|-----|-3---|-2---|-0---|-----|-3--*||---------------------------
-|-0---|-3---|-----|-----|-0---|-3---|-----|-----||---------------------------
  Coda1: you should be able to figure out how many times each cord is played! 

-|----x------x-|-----x-|---------|-x--x-x-x-x-x-0||---------------------------
-|----x------x-|-----x-|---------|-x--x-x-x-x-x-0||---------------------------
-|-------------|-------|---------|---------------||---------------------------
-|-2-----------|-------|---------|---------------||---------------------------
-|-2-----------|-x-----|-------x-|---------------||---------------------------
-|-0----x------|-x-----|-------x-|---------------||---------------------------
 Coda2: this is wierd but, I got it from the nirvana-unplugged tab-book!      

-|---0------|||---------------------------------------------------------------
-|---0------|||---------------------------------------------------------------
-|---x------|||---------------------------------------------------------------
-|---2------|||---------------------------------------------------------------
-|---2------|||---------------------------------------------------------------
-|---0------|||---------------------------------------------------------------
 End: it's easy! I think it's 100% correct, what's your oppinion?
            
Hard to play? Try these video lessons and learn fast. | Correct




comments powered by Disqus
↑ Back to top | Tablatures and chords are parodies/interpretations of the original songs. You may use it for private study, scholarship, research or language learning purposes only