» » »

Negative Creep Tabs (ver.2)

Artists:  A B C D E F G H I J K L M N O P Q R S T U V W X Y Z # 

Negative Creep Tabs (ver.2)

Nirvana
Rating:
0/5 (0 votes)
Tabs too difficult? Try these video lessons and learn fast.
                Tune Down to Drop D
 intro

e----------------------------------------------------------------------------
b----------------------------------------------------------------------------
g----------------------------------------------------------------------------
d----------------------------------------------------------------------------
a----------------------------------------------------------------------------
e--0--0--/12--0--0--0--0-12\--0--0--/12--0--0--0--0-12\----------------------

e----------------------------------------------------------------------------
b----------------------------------------------------------------------------
g----------------------------------------------------------------------------
d----------------------------------------------------------------------------
a----------------------------------------------------------------------------
e--0--0--/12--0--0--0--0-12\--0--0--/12--0--0--0--0-12\----------------------

play that 2 times, then
 verse
e----------------------------------------------------------------------------
b----------------------------------------------------------------------------
g----------------------------------------------------------------------------
d----------------------------------------------------------------------------
a----------------------------------------------------------------------------
e--0--0--/12--0--0--0--0-12\--0--0--/12--0--0--0--0-12\----------------------

e----------------------------------------------------------------------------
b----------------------------------------------------------------------------
g----------------------------------------------------------------------------
d----------------------------------------------------------------------------
a--------------------------)~~~----------------------------------------------
e--0--0--/12--0--0--0--0--5--------------------------------------------------

e----------------------------------------------------------------------------
b----------------------------------------------------------------------------
g----------------------------------------------------------------------------
d----------------------------------------------------------------------------
a----------------------------------------------------------------------------
e--0--0--/12--0--0--0--0-12\--0--0--/12--0--0--0--0-12\----------------------

e----------------------------------------------------------------------------
b----------------------------------------------------------------------------
g----------------------------------------------------------------------------
d---------------------------)~~----------------------------------------------
a-------------------------14-------------------------------------------------
e--0--0--/12--0--0--0--0-----------------------------------------------------

e----------------------------------------------------------------------------
b----------------------------------------------------------------------------
g----------------------------------------------------------------------------
d----------------------------------------------------------------------------
a----------------------------------------------------------------------------
e--0--0--/12--0--0--0--0-12\--0--0--/12--0--0--0--0-12\----------------------

e----------------------------------------------------------------------------
b----------------------------------------------------------------------------
g----------------------------------------------------------------------------
d----------------------------------------------------------------------------
a--------------------------)~~~----------------------------------------------
e--0--0--/12--0--0--0--0--3--------------------------------------------------

e----------------------------------------------------------------------------
b----------------------------------------------------------------------------
g----------------------------------------------------------------------------
d----------------------------------------------------------------------------
a----------------------------------------------------------------------------
e--0--0--/12--0--0--0--0-12\--0--0--/12--0--0--0--0-12\----------------------

e----------------------------------------------------------------------------
b----------------------------------------------------------------------------
g----------------------------------------------------------------------------
d----------------------------------------------------------------------------
a----------------------------------------------------------------------------
e--0--0--/12--0--0--0--0--0--------------------------------------------------

 chorus
e----------------------------------------------------------------------------
b----------------------------------------------------------------------------
g----------------------------------------------------------------------------
d----------------------------------------------------------------------------
a--7--7--5--4--4--4-0--7--7--5--8--8--5--0-----------------------------------
e-----------4--4--4-0--7--7--------------------------------------------------

play that 8 times.
            
Tabs too difficult? Try these video lessons and learn fast.


comments powered by Disqus
↑ Back to top | Tablatures and chords are parodies/interpretations of the original songs. You may use it for private study, scholarship, research or language learning purposes only