» » »

Negative Creep Bass tabs (ver.1)

Artists:  A B C D E F G H I J K L M N O P Q R S T U V W X Y Z # 

Negative Creep Bass tabs (ver.1)

Nirvana
Rating:
0/5 (0 votes)

Tabs too difficult? Try these video lessons and learn fast.
                BASSIST: Krist Novoselic
TUNING: Drop D
-------------------------|
-------------------------|


Intro: x1

G|---------------------------------|
D|---------------------------------|
A|---------------------------------|
D|-0-0-0-0-0-0-0-12----------------|

Verse: x3

G|---------------------------------|
D|---------------------------------|
A|---------------------------------|
D|-0-0-0-0-0-0-0-12----------------| x3

G|---------------------------------|
D|---------------------------------|
A|---------------------------------|
D|-0-0-0-0~------------------------|

Pre Chorus (End of Verse): x1

G|---------------------------------|
D|---------------------------------|
A|---------------------------------|
D|-0-0-0-0-0-0-0-12----------------|

G|---------------------------------|
D|---------------------------------|
A|---------7-7-7-7-----------------|
D|-0-0-0-0-------------------------|

Chorus: x8

G|---------------------------------|
D|---------------------------------|
A|-7-7-5-------------5-8~-8-5------|
D|-------4~-4-4--7-7----------7----|


-------------------------|
-------------------------|
Intro         x1
Verse         x3
Pre Chorus    x1
Chorus        x8
Verse         x3
Pre Chorus    x1
Chorus        x8
Verse         x3
Pre Chorus    x1
Chorus        x8
-------------------------|
-------------------------|
| /  slide up
| \  slide down
| h  hammer-on
| p  pull-off
| ~  vibrato
| +  harmonic
| x  Mute note
            
Tabs too difficult? Try these video lessons and learn fast.


comments powered by Disqus
↑ Back to top | Tablatures and chords are parodies/interpretations of the original songs. You may use it for private study, scholarship, research or language learning purposes only