» » »

Ndive Bass tabs (ver.1)

Artists:  A B C D E F G H I J K L M N O P Q R S T U V W X Y Z # 

Ndive Bass tabs (ver.1)

Nirvana
Rating:
0/5 (0 votes)

Hard to play? Try these video lessons and learn fast.
                
Intro/Verse

G--------------------
D--------------------
A---------------7-7-7
E-2-0-2-0-2-2-0------


Chorus

G---------------------
D---------------------  
A-2--2-4--4-------7-7-
E-----------3--3------ Then play Intro/Verse

Guitar Solo

G-----------------------------
D-----------------------------
A-13--11--13--11--13----------
E--------------------12-12-12-
            
Hard to play? Try these video lessons and learn fast. | Correct




comments powered by Disqus
↑ Back to top | Tablatures and chords are parodies/interpretations of the original songs. You may use it for private study, scholarship, research or language learning purposes only