» » »

Mr Moustache Bass tabs (ver.3)

Artists:  A B C D E F G H I J K L M N O P Q R S T U V W X Y Z # 

Mr Moustache Bass tabs (ver.3)

Nirvana
Rating:
0/5 (0 votes)

Hard to play? Try these video lessons and learn fast.
                Intro+ verse
| --------------------|
| --------------------|
| -2------------------|
| 3-3-2-1-0-1-2----|

chorus
| --------------------|     |-----------------------|
| --------------------|     |-----------------------|
| -------4-----------|      |----------------------|
| --5---5-----------|      |-----------------------|

| --------------------|     |-----------------------|
| --------------------|     |-----------------------|
| -------4-----------|      |----------------------|
| --5---5-----------|      |-----------------------|

verse

| --------------------|
| --------------------|
| -2------------------|
| 3-3-2-1-0-1-2----|
            
Hard to play? Try these video lessons and learn fast. | Correct




comments powered by Disqus
↑ Back to top | Tablatures and chords are parodies/interpretations of the original songs. You may use it for private study, scholarship, research or language learning purposes only