» » »

Nirvana, Mr Moustache Tabs (ver.3)

Artists:  A B C D E F G H I J K L M N O P Q R S T U V W X Y Z # 

Mr Moustache Tabs (ver.3)

Nirvana Tabs
 Rating:
4/5 (4 votes)
Mr Moustache lessons Tabs too difficult? Try these video lessons and learn fast
                NIRVANA 

Written by - kurt cobain
band - nirvana

Mr Moustache
 intro
e------------------------------------------------------------------
b------------------------------------------------------------------
g------------------------------------------------------------------
d------------------------------------------------------------------
a-----2-----------------------1------------------------------------
e--3-----3--2--1--0--1--2--3-----3--2--1--0--1--2------------------

play that 4 times, then
 verse
e-----------------------------------------------------------
b-----------------------------------------------------------
g--0--0---------------0--0---------------0--0---------------    
d--0--0---------------0--0---------------0--0---------------
a--x--x---------------x--x---------------x--x---------------
e--3--3--0--1--2--2---3--3--0--1--2--2---3--3--0--1--2--2---
         PM--------         PM--------         PM--------      
 
 play that 3 times, then
e------------------------------------------------------
b------------------------------------------------------
g------------------------------------------------------        
d------------------------------------------------------
a-----2-----------------------1------------------------
e--3-----3--2--1--0--1--2--3-----3--2--1--0--1--2------

e--------------------------------------------------------------
b--------------------------------------------------------------
g--------------------------------------------------------------        
d--------------------------------------------------------------
a-----2-----------------------1--------------------------------
e--3-----3--2--1--0--1--2--3-----3--2--1--0--1--2--------------

e----------------------------------------------------------
b----------------------------------------------------------
g--0--0---------------0--0---------------0--0--------------
d--0--0---------------0--0---------------0--0--------------
a--x--x---------------x--x---------------x--x--------------
e--3--3--0--1--2--2---3--3--0--1--2--2---3--3--0--1--2--2--
         PM--------         PM--------         PM-------- 

e----------------------------------------------------------
b----------------------------------------------------------
g--0--0---------------0--0---------------0--0--------------        
d--0--0---------------0--0---------------0--0--------------
a--x--x---------------x--x---------------x--x--------------
e--3--3--0--1--2--2---3--3--0--1--2--2---3--3--0--1--2--2--
         PM--------         PM--------         PM--------    

 chorus
e--------------------------------------------------------------
b--------5--5--5------------------------5--5--5----------------
g--4--x--5--5--5------------------4--x--5--5--5----------------       
d--4--x--5--5--5---5-5-5-5-5-5-5--4--x--5--5--5---5-5-5-5-5----     
a--2--x--3--3--3---5-5-5-5-5-5-5--2--x--3--3--3---5-5-5-5-5----
e------------------3-3-3-3-3-3-3------------------3-3-3-3-3----

e---------------------------------------------------------------
b--------5--5--5------------------------5--5--5-----------------
g--4--x--5--5--5------------------4--x--5--5--5-----------------      
d--4--x--5--5--5---5-5-5-5-5-5-5--4--x--5--5--5---5-5-5-5-5-----     
a--2--x--3--3--3---5-5-5-5-5-5-5--2--x--3--3--3---5-5-5-5-5-----
e------------------3-3-3-3-3-3-3------------------3-3-3-3-3-----
 
e---------------------------------------------------------------
b---------------------------------------------------------------
g--------------------------------5-5-5-5-5/8-8-8-8-8-8-8-8------
d--------------------------------5-5-5-5-5/8-8-8-8-8-8-8-8------
a--5--7-7--5/7--7--7-7--5/7--7---3-3-3-3-3/6-6-6-6-6-6-6-6------
e--3--5-5--3/5--5--5-5--3/5--5----------------------------------

e---------------------------------------------------------------
b---------------------------------------------------------------
g--------------------------------5-5-5-5-5/8-8-8-8-8-8-8-8------
d--------------------------------5-5-5-5-5/8-8-8-8-8-8-8-8------
a--5--7-7--5/7--7--7-7--5/7--7---3-3-3-3-3/6-6-6-6-6-6-6-6------
e--3--5-5--3/5--5--5-5--3/5--5----------------------------------
            
Submit corrections

comments powered by Disqus
↑ Back to top | Nirvana Tabs for Mr Moustache. Lyrics for acoustic guitar and electric guitar. Tablatures and chords are parodies/interpretations of the original songs. You may use it for private study, scholarship, research or language learning purposes only