» » »

Nirvana, Mr Moustache Tabs (ver.2)

Artists:  A B C D E F G H I J K L M N O P Q R S T U V W X Y Z # 

Mr Moustache Tabs (ver.2)

Nirvana Tabs
Rating:
0/5 (0 votes)
Mr Moustache lessons Tabs too difficult? Try these video lessons and learn fast
                Mr. Moustache 
 As performed by Nirvana on Bleach

  Intro.-
 |-------------------------------------------------|
 |o-----------------------------------------------o|
 |-------------------------------------------------| ?X
 |-------------------------------------------------|
 |o----2-----------------------1------------------o|
 |--3-----3--2--1--0--1--2--3-----3--2--1--0--1--2-|

  Verse.-
 |-------------------------|------------------------------------------------|
 |o-----------------------o|o-----------------------------------------------|
 |---------*---------------|--4-----5--5--5-----------------------4-----5---|
 |--5--5----X--X--X--X-----|--4-----5--5--5---5--5--5--5--5--5----4-----5---|
 |o-5--5----X--X--X--X----o|o-2--0--3--3--3---5--5--5--5--5--5----2--0--3---|
 |--3--3----X--X--X--X-----|------------------3--3--3--3--3--3--------------|

  * "mute" strings with more than one finger by second or first fret

 |-------------------------|--------------------------|
 |------------------------o|o------------------------o| * Do stacatto in some
 |--5--5-------------------|---*----------------------|   of the notes, listen
 |--5--5---5--5--5--5--5---|---7---7---7--7--7---5----|   to the tape; you'll
 |--3--3---5--5--5--5--5--o|o--7---7---7--7--7---5---o|   get it ;)
 |---------3--3--3--3--3---|---5---5---5--5--5---3----|

   "Im you..."
 |--------------------------|
 |o------------------------o|
 |--5---5---5------8--8--8--|
 |--5---5---5------8--8--8--|
 |o-3---3---3------6--6--6-o|
 |--------------0-----------|

  That's all, at the end just play the intro, but slower it's really easy, and
  end it with a G power chord (355xxx)

  Comments or whatever, or just for the hell of it

  Note.- Almost every time I play guitar, I play an open chord between each 
  chord (0xxxxx) or (00xxxx) and that's how I tab it, you may as well not play
  that open chord, it's up to you.
                                                        Daniel
            

comments powered by Disqus
↑ Back to top | Nirvana Tabs for Mr Moustache. Lyrics for acoustic guitar and electric guitar. Tablatures and chords are parodies/interpretations of the original songs. You may use it for private study, scholarship, research or language learning purposes only