» » »

Moist Vagina Tabs (ver.3)

Artists:  A B C D E F G H I J K L M N O P Q R S T U V W X Y Z # 

Moist Vagina Tabs (ver.3)

Nirvana
Rating:
0/5 (0 votes)

Hard to play? Try these video lessons and learn fast.
                Band=Nirvana
Song=moist vagina (aka:marijuanna)

This is a really cool and easy song quite disgusting in its own right anyway here it is!
Standard tuning
Intro

e|-----------0----------
b|-----------0----------
g|----------------------
d|----------------------
a|----------------------
E|--0--2----------------

Sometimes this will vary and change to:

e|---------------0-----------
b|------------0--------------
g|---------0-----------------
d|---------------------------
a|---------------------------
E|--0--2---------------------

you will have to work out when it does
this as i am not writing it down because
i go by me knowing the song well

Verse (“She has a moist vagina..........”)

e|-------------------------------------------
b|-------------------------------------------
g|--2-2-2-2-2-2-2-0--5-5-5-5-5-5-5-5---------
d|--2-2-2-2-2-2-2-0--5-5-5-5-5-5-5-5--------
a|--0-0-0-0-0-0-0-0--3-3-3-3-3-3-3-3--------
E|------------------------------------------
          A               C

Chorus  (“marijuanna.........”)

e|------------------0----
b|------------------0----
g|-----------------------
d|--2---X---4------------
a|--2---X---4------------
E|--0---X---2-------------
    E       F#

That is it really easy
            
Hard to play? Try these video lessons and learn fast. | Correct




comments powered by Disqus
↑ Back to top | Tablatures and chords are parodies/interpretations of the original songs. You may use it for private study, scholarship, research or language learning purposes only