» » »

Moist Vagina Tabs (ver.2)

Artists:  A B C D E F G H I J K L M N O P Q R S T U V W X Y Z # 

Moist Vagina Tabs (ver.2)

Nirvana
Rating:
0/5 (0 votes)

Hard to play? Try these video lessons and learn fast.
                NOTES: This is the basic part of the song. In the actual version there is a sort of solo in which Kurt is just jamming on the top two strings.

Verse: 
e|-------------0---------------0---|
B|-------------0---------------0---|
G|---------------------------------|
D|---------------------------------|
A|-0---x---2-------0---x---2-------|
D|-0---x---2-------0---x---2-------|

Pre-chorus:
e|---------------------------------|
B|---------------------------------|
G|-3-3---3-3-3---3-6-6-6-6-6-6-6-6-|
D|-3-3---3-3-3---3-6-6-6-6-6-6-6-6-|
A|-3-3---3-3-3---3-6-6-6-6-6-6-6-6-|
D|-3-3---3-3-3---3-6-6-6-6-6-6-6-6-|

Chorus:
e|---------------------------------|
B|---------------------------------|
G|---------------------------------|
D|-0---x---2-------0---x---2-------|
A|-0---x---2-------0---x---2-------|
D|-0---x---2-------0---x---2-------|

PLAYING ORDER:
     verse | x4 clean
    bridge | x1 clean
     verse | x2 clean
    bridge | x1 clean
     verse | x2 clean
    bridge | x1 clean
    chorus | x2 distorted
    bridge | x1 distorted
    chorus | x4 distorted
     verse | x2 clean
    bridge | x1 clean
     verse | x2 clean
    bridge | x1 distorted
    chorus | x18 distorted
            
Hard to play? Try these video lessons and learn fast. | Correct




comments powered by Disqus
↑ Back to top | Tablatures and chords are parodies/interpretations of the original songs. You may use it for private study, scholarship, research or language learning purposes only