>
 >
Mexican Seafood 2

Mexican Seafood 2 Bass Tabs

Nirvana - Mexican Seafood 2 chords, tabs, tablatures, lyrics

Guitar lessons | Add/correct | Request | Top 50 tabs Artists:  A B C D E F G H I J K L M N O P Q R S T U V W X Y Z 0-9

Mexican Seafood 2 Bass Tabs – Nirvana

CD, Sheet music, Poster

Do you like Mexican Seafood 2? Share with your friends now
Bass TabsBass Tabs v2TabsTabs v2Tabs v3Tabs v4
-----------------------------------------------------------------
Mexican Seafood - Nirvana
-----------------------------------------------------------------

Tuning: E,A,D,G

This Is My First Tab That I tabbed Out In About 1 Hour To Get Everything The Way I Think 
Played. Feedback Would Be Great!

| /  slide up
| \  slide down
| h  hammer-on
| p  pull-off
| ~  vibrato
| +  harmonic
| x  Mute note

  Intro/Chorus (0:00,0:23,0:49)
G|------------------------------|
D|---6-66--4h6p4--3-33-3-3-3-3--| x4
A|------------------------------|
E|------------------------------|
    "Oh Well It Hurts When I..."

  Verse (0:12,0:37,1:25)
G|--------------------|
D|--------------------| x4
A|--------------------|
E|---4-012-4-012-2-3--|
  1."Ah The Itchy Flakes..."
  2."Now I Vomit Cum..."
  3."Roll Into My Bed..."

  Bridge/Solo Pt.1 (1:03)
G|------4-------4/5\4--|
D|---6xx6----6xx6/6\6--| x2
A|---------------------|
E|---------------------|

 Bridge/Solo Pt.2 (1:14)
G|---------------------|
D|----------44-2-------| x4
A|---------------43----|
E|---2-02-0------------|

  Outro (1:37)              End On (1:47)
G|---------------------     |-----|
D|--------------------- x4  |-----|
A|---------------------     |--2~-|
E|---4-012-4-012-2-3---     |--1~-|

Order:
Intro/Chorus x4
Verse x4
Intro/Chorus x4
Verse x4
Intro/Chorus x4
Bridge/Solo Pt.1 x2
Bridge/Solo Pt.2 x4
Verse x4
Outro x3

Lyrics

Ah, the itchy flakes, it is flaming
To, the gels and creams, it is pertaining
To, a fungus mold cured by injection
Hope it's only Ah, a yeast infection

Oh well it hurts when I, hurts when I pee
Oh well it hurts when I, hurts when I see

Now I vomit cum and diarrhea
On the tile floor, like oatmeal-pizza
Fill my toilet bowl, full of a cloudy puss
I feel the blood, becoming chowdered rust

Oh well it hurts when I, hurts when I pee
Oh well it hurts when I, hurts when I see

Roll into my bed, which does consist of
Lice, bugs and fleas and yellow mucus
Stained, dirt vaseline, toe jam and boogers
Stomach acid worms, that dance in sugared sludge





Comments


Popular Nirvana tabs & chords
Moist Vagina 2 Bass Tabs
Mr Moustache Bass Tabs
Lithium 2 Chords
Aero Zeppelin 2 Tabs
Aneurysm Intro Tabs
Floyd The Barber 2 Tabs
In Bloom 8 Tabs
Stay Away 2 Tabs
Swap Meet Tabs
Token Eastern Song Tabs


Song lyrics



↑ Back to top | Tablatures and chords are parodies/interpretations of the original songs. You may use it for private study, scholarship, research or language learning purposes only
© 2014 AZChords.com Contact us | Privacy policy | DMCA | Add/correct tabs | Request tabs | Top 50 tabs