» » »

Love Buzz Bass tabs (ver.6)

Artists:  A B C D E F G H I J K L M N O P Q R S T U V W X Y Z # 

Love Buzz Bass tabs (ver.6)

Nirvana
Rating:
0/5 (0 votes)

Hard to play? Try these video lessons and learn fast.
                #------------------------------------------------------------------------------##

Love Buzz by Nirvana
this rif is repeated until later on in the song 

                       trill
g---------------------7-8--------------------------------
d---8-----6-8-9----------------------------------------
e----------------------------------------------------------
a---------------------------------------------------------

rif # 2

g-----7-----7-8--8-7-----------|---------7-----------------------------------
d---8----8---------------8-6-8-|-6-8---------8-6-8----------------------------
---
a----------------------------------|----------------------------------------
e----------------------------------|------------------------------------------


thats it
real name scott broschart
            
Hard to play? Try these video lessons and learn fast. | Correct




comments powered by Disqus
↑ Back to top | Tablatures and chords are parodies/interpretations of the original songs. You may use it for private study, scholarship, research or language learning purposes only