» » »

Love Buzz Bass tabs (ver.5)

Artists:  A B C D E F G H I J K L M N O P Q R S T U V W X Y Z # 

Love Buzz Bass tabs (ver.5)

Nirvana
Rating:
0/5 (0 votes)

Hard to play? Try these video lessons and learn fast.
                this bass cover is played better with a jazz bass than the usual bass...
i decided to create my own Bass Tab because i found some Bass Tab for this song are 
or incomplete... I'm not sure about this one so I'm sating that this might be wrong also...
but every time I played it, it was also the same...

Lick1:
G|-------6h7|
D|7-5-7h8---|
A|----------|
E|----------|
  x

Lick2:
G|-----6h7---|
D|5-7h8---7>-|   hit this when guitar1
A|-----------|          hits in
E|-----------|
  x

(chorus part)...

G|-----------------6-----------6-----------6-7/9--9p7-6---------6---------6-----------6h8---|
D|7-7-5-77---77-5-7--5--7-7-5-7--5--7-7-5-7--------------7-7-5-7--5--7-7-5--5--7-5-7h8--0--7|
A|------------------------------------------------------------------------------------------|
E|------------------------------------------------------------------------------------------|

repeat Lick2...
then chorus...

(Bass Solo)...

G|-----------7h8-||------------------------------------------------------|
D|-7-5-7-5-7-----||------------------------------------------------------|
A|---------------||----3-----3-------3-------------3------------3--------|
E|---------------||0-4---2-2---2-2-4---4-2-4---2-4---4-2-4--2-4---4-2-4--|
  4x
G|-----------||-------------||-----------5-6h8p6-5------------------------|
D|-7-5-7-5-7-||-------------||-------4-6----------------------------------|
A|-----------||---------3-3-||-0-4-6--------------------3-4/6p4-3---6p4-3-|
E|-----------||-2-4-2-4-----||----------------------0-4-------------------|
               2x
G|-------------------------------5-6h8p6-5---------------------------|
D|-------------------------4--6-------------6-4----------------------|
A|---------3-------3--4/6-----------------------6-4-------------3-3--|
E|-2-4-2-4----2-4-----------------------------------6-4p2-4-2-4------|

G|-------------||-----------------------|
D|-------------||-----------------------|
A|---------3-3-||-----3h4/6p4-3-------3-|
E|-2-4-2-4-----||-2-4-------------2-4---|
  3x-
G|-------------------5-6h8p6-5-5-5h8p6-5----------------------------|
D|--------------4-6----------------------6-4------------------------|
A|--------3-4/6------------------------------6-4-------------3-3----|
E|-2-4--------------------------------------------6-4p2-4-2-4-----4-|

G|-----------6h7---||---------6h7---||
D|---7-5-7h8-----7-||-7-5-7h8-----7-||
A|-0---------------||---------------||
E|-----------------||---------------||
                     x
(ending part)....
G|----------------------------------|
D|7-7-7-7-7-5-5-5-5-5-5-5-5-5-5-----|
A|-------------------------------0>-|
E|----------------------------------|


legend:
 > = break
 p = pull-off
 h = hammer-on
 x = repeat as often as needed..

    so that's it!!! I'm not sure about this...
    this is my first tab that has been posted here...
    please feel free to rate this...
            
Hard to play? Try these video lessons and learn fast. | Correct




comments powered by Disqus
↑ Back to top | Tablatures and chords are parodies/interpretations of the original songs. You may use it for private study, scholarship, research or language learning purposes only