» » »

Love Buzz Bass tabs (ver.4)

Artists:  A B C D E F G H I J K L M N O P Q R S T U V W X Y Z # 

Love Buzz Bass tabs (ver.4)

Nirvana
Rating:
0/5 (0 votes)

Hard to play? Try these video lessons and learn fast.
                ------------------------------------------------------------------------------------------
		                 	                       LOVE BUZZ - Nirvana
------------------------------------------------------------------------------------------


Tuning: Standard

Main riff (& Intro)

G|---------7h8p7-|
D|-8-6-8-9-------|
A|---------------|
E|---------------|

Verse
             (X3)
G|---------7h8p7-|---------7-8-|
D|-8-6-8-9-------|-8-6-8-9-----|
A|---------------|-------------|
E|---------------|-------------|

End of the verse

G|--------|-----------|---7---------|---7---------|---7---7-8/|10-8-7--------|
D|-8-8-66-|-8-8-6---6-|-8---8-6-8-6-|-8---8-6-8-6-|-8---8-----|-------8-6-8-6|
A|--------|-------8---|-------------|-------------|-----------|--------------|
E|--------|-----------|-------------|-------------|-----------|--------------|

G|---7---------|---7---------|
D|-8---8-6-8-6-|-8---8-6-8-6-|
A|-------------|-------------|
E|-------------|-------------|

Main riff

Verse

Bridge (X4)

G|---------8-9-----|
D|-8-6-8-9-----8-6-|
A|-----------------|
E|-----------------|

Bass solo
             (X2)
G|--------------|----------------|-------------|------6-8-----|------------|
D|----------0---|------0---------|---0---------|8-6-8---------|--------0-1-|
A|----1---1---1-|----1---1---1---|-1---1---1---|--------------|-1---1------|
E|1-4---4-------|1-4-------4---4-|-------4---4-|----------1-4-|---4--------|

G|----|--7-8-10-8-----|------------|----------|-----------|----1-3-|7-8/10-8-|
D|--6-|8--------------|--0-1-3-1-0-|3-1-0-----|--0--0-1-0-|1-3-----|---------|
A|8---|---------------|1-----------|------1---|1---1------|--------|---------|
E|----|-----------1-4-|------------|--------4-|-----------|--------|---------|
                                        (X2)
G|8/10-8-7-----|--------------|------------|----------|---------|-----------|
D|---------8-6-|----0---------|--0---------|--0-1-3-1-|3-1-0----|--0--------|
A|-------------|8-6---1-------|1---1-------|1---------|------1--|1---1------|
E|-------------|--------4-1-4-|------4-1-4-|----------|--------4|------4-1-4|

G|------------|----1-3-|7---7-8/10-88-|10-8-7-----|-----------|
D|--0---0-1-0-|1-3-----|--8-----------|-------8-6-|----0-----6|
A|1---1-------|--------|--------------|-----------|8-6---1----|
E|------------|--------|--------------|-----------|--------4--|

Verse(X16)

End!
G|----------|----------|---|
D|----------|----------|---|
A|----------|----------|---|
E|-66666666-|-66666666-|-6-|

| /  slide up
| \  slide down
| h  hammer-on
| p  pull-off
| ~  vibrato
| +  harmonic
| x  Mute note
===============================================================================
            
Hard to play? Try these video lessons and learn fast. | Correct




comments powered by Disqus
↑ Back to top | Tablatures and chords are parodies/interpretations of the original songs. You may use it for private study, scholarship, research or language learning purposes only